  0
SECTION
  2
HEADER
  9
$ACADVER
  1
AC1014
  9
$HANDSEED
  5
FFFF
  9
$MEASUREMENT
 70
     1
  0
ENDSEC
  0
SECTION
  2
TABLES
  0
TABLE
  2
VPORT
  5
8
330
0
100
AcDbSymbolTable
 70
     4
  0
VPORT
  5
2E
330
8
100
AcDbSymbolTableRecord
100
AcDbViewportTableRecord
  2
*ACTIVE
 70
     0
 10
0.0
 20
0.0
 11
1.0
 21
1.0
 12
210.0
 22
148.5
 13
0.0
 23
0.0
 14
10.0
 24
10.0
 15
10.0
 25
10.0
 16
0.0
 26
0.0
 36
1.0
 17
0.0
 27
0.0
 37
0.0
 40
341.0
 41
1.24
 42
50.0
 43
0.0
 44
0.0
 50
0.0
 51
0.0
 71
     0
 72
   100
 73
     1
 74
     3
 75
     0
 76
     0
 77
     0
 78
     0
  0
ENDTAB
  0
TABLE
  2
LTYPE
  5
5
330
0
100
AcDbSymbolTable
 70
     1
  0
LTYPE
  5
14
330
5
100
AcDbSymbolTableRecord
100
AcDbLinetypeTableRecord
  2
BYBLOCK
 70
     0
  3

 72
    65
 73
     0
 40
0.0
  0
LTYPE
  5
15
330
5
100
AcDbSymbolTableRecord
100
AcDbLinetypeTableRecord
  2
BYLAYER
 70
     0
  3

 72
    65
 73
     0
 40
0.0
  0
LTYPE
  5
16
330
5
100
AcDbSymbolTableRecord
100
AcDbLinetypeTableRecord
  2
CONTINUOUS
 70
     0
  3
Solid line
 72
    65
 73
     0
 40
0.0
  0
ENDTAB
  0
TABLE
  2
LAYER
  5
2
100
AcDbSymbolTable
 70
1
  0
LAYER
  5
50
100
AcDbSymbolTableRecord
100
AcDbLayerTableRecord
  2
0
 70
0
  6
CONTINUOUS
  0
ENDTAB
  0
TABLE
  2
STYLE
  5
3
330
0
100
AcDbSymbolTable
 70
     1
  0
STYLE
  5
11
330
3
100
AcDbSymbolTableRecord
100
AcDbTextStyleTableRecord
  2
STANDARD
 70
     0
 40
0.0
 41
1.0
 50
0.0
 71
     0
 42
2.5
  3
txt
  4

  0
ENDTAB
  0
TABLE
  2
VIEW
  5
6
330
0
100
AcDbSymbolTable
 70
     0
  0
ENDTAB
  0
TABLE
  2
UCS
  5
7
330
0
100
AcDbSymbolTable
 70
     0
  0
ENDTAB
  0
TABLE
  2
APPID
  5
9
330
0
100
AcDbSymbolTable
 70
     2
  0
APPID
  5
12
330
9
100
AcDbSymbolTableRecord
100
AcDbRegAppTableRecord
  2
ACAD
 70
     0
  0
ENDTAB
  0
TABLE
  2
DIMSTYLE
  5
A
330
0
100
AcDbSymbolTable
 70
     1
  0
DIMSTYLE
105
27
330
A
100
AcDbSymbolTableRecord
100
AcDbDimStyleTableRecord
  2
ISO-25
 70
     0
  3

  4

  5

  6

  7

 40
1.0
 41
2.5
 42
0.625
 43
3.75
 44
1.25
 45
0.0
 46
0.0
 47
0.0
 48
0.0
140
2.5
141
2.5
142
0.0
143
0.03937007874016
144
1.0
145
0.0
146
1.0
147
0.625
 71
     0
 72
     0
 73
     0
 74
     0
 75
     0
 76
     0
 77
     1
 78
     8
170
     0
171
     3
172
     1
173
     0
174
     0
175
     0
176
     0
177
     0
178
     0
270
     2
271
     2
272
     2
273
     2
274
     3
340
11
275
     0
280
     0
281
     0
282
     0
283
     0
284
     8
285
     0
286
     0
287
     3
288
     0
  0
ENDTAB
  0
TABLE
  2
BLOCK_RECORD
  5
1
330
0
100
AcDbSymbolTable
 70
     1
  0
BLOCK_RECORD
  5
1F
330
1
100
AcDbSymbolTableRecord
100
AcDbBlockTableRecord
  2
*MODEL_SPACE
  0
BLOCK_RECORD
  5
1B
330
1
100
AcDbSymbolTableRecord
100
AcDbBlockTableRecord
  2
*PAPER_SPACE
  0
ENDTAB
  0
ENDSEC
  0
SECTION
  2
BLOCKS
  0
BLOCK
  5
20
330
1F
100
AcDbEntity
  8
0
100
AcDbBlockBegin
  2
*MODEL_SPACE
 70
     0
 10
0.0
 20
0.0
 30
0.0
  3
*MODEL_SPACE
  1

  0
ENDBLK
  5
21
330
1F
100
AcDbEntity
  8
0
100
AcDbBlockEnd
  0
BLOCK
  5
1C
330
1B
100
AcDbEntity
 67
     1
  8
0
100
AcDbBlockBegin
  2
*PAPER_SPACE
  1

  0
ENDBLK
  5
1D
330
1B
100
AcDbEntity
 67
     1
  8
0
100
AcDbBlockEnd
  0
ENDSEC
  0
SECTION
  2
ENTITIES
  0
SPLINE
  5
100
100
AcDbEntity
  8
0
 62
1
100
AcDbSpline
 70
0
 71
3
 72
10
 73
6
 74
4
 40
0.000000
 40
0.000000
 40
0.000000
 40
0.000000
 40
37.932207
 40
74.598855
 40
110.767949
 40
110.767949
 40
110.767949
 40
110.767949
 10
141.633844
 20
283.249382
 30
0.0
 10
128.975425
 20
282.249490
 30
0.0
 10
104.080919
 20
280.283067
 30
0.0
 10
69.304017
 20
265.578993
 30
0.0
 10
50.816723
 20
249.708803
 30
0.0
 10
41.636220
 20
241.827913
 30
0.0
 11
141.633844
 21
283.249382
 31
0.0
 11
104.039520
 21
278.197735
 31
0.0
 11
70.257902
 21
263.941318
 31
0.0
 11
41.636220
 21
241.827913
 31
0.0
  0
SPLINE
  5
101
100
AcDbEntity
  8
0
 62
1
100
AcDbSpline
 70
0
 71
3
 72
13
 73
9
 74
7
 40
0.000000
 40
0.000000
 40
0.000000
 40
0.000000
 40
36.168738
 40
72.835594
 40
110.768023
 40
148.700232
 40
185.366884
 40
221.535976
 40
221.535976
 40
221.535976
 40
221.535976
 10
41.636220
 20
241.827913
 30
0.0
 10
33.719446
 20
232.647573
 30
0.0
 10
17.776868
 20
214.160461
 30
0.0
 10
3.626749
 20
179.383410
 30
0.0
 10
-1.520181
 20
141.830370
 30
0.0
 10
3.626718
 20
104.277361
 30
0.0
 10
17.777046
 20
69.500459
 30
0.0
 10
33.719464
 20
51.013164
 30
0.0
 10
41.636220
 20
41.832663
 30
0.0
 11
41.636220
 21
241.827913
 31
0.0
 11
19.522816
 21
213.206680
 31
0.0
 11
5.266399
 21
179.424838
 31
0.0
 11
0.214752
 21
141.830290
 31
0.0
 11
5.266399
 21
104.235964
 31
0.0
 11
19.522816
 21
70.454343
 31
0.0
 11
41.636220
 21
41.832663
 31
0.0
  0
SPLINE
  5
102
100
AcDbEntity
  8
0
 62
1
100
AcDbSpline
 70
0
 71
3
 72
13
 73
9
 74
7
 40
0.000000
 40
0.000000
 40
0.000000
 40
0.000000
 40
36.168739
 40
72.835594
 40
110.768023
 40
148.700232
 40
185.366883
 40
221.535976
 40
221.535976
 40
221.535976
 40
221.535976
 10
41.636220
 20
41.832663
 30
0.0
 10
50.816560
 20
33.915888
 30
0.0
 10
69.303672
 20
17.973309
 30
0.0
 10
104.080724
 20
3.823192
 30
0.0
 10
141.633764
 20
-1.323736
 30
0.0
 10
179.186772
 20
3.823161
 30
0.0
 10
213.963676
 20
17.973486
 30
0.0
 10
232.450970
 20
33.915906
 30
0.0
 10
241.631471
 20
41.832663
 30
0.0
 11
41.636220
 21
41.832663
 31
0.0
 11
70.257454
 21
19.719257
 31
0.0
 11
104.039295
 21
5.462842
 31
0.0
 11
141.633844
 21
0.411196
 31
0.0
 11
179.228170
 21
5.462842
 31
0.0
 11
213.009791
 21
19.719257
 31
0.0
 11
241.631471
 21
41.832663
 31
0.0
  0
SPLINE
  5
103
100
AcDbEntity
  8
0
 62
1
100
AcDbSpline
 70
0
 71
3
 72
13
 73
9
 74
7
 40
0.000000
 40
0.000000
 40
0.000000
 40
0.000000
 40
36.168738
 40
72.835596
 40
110.768027
 40
148.700235
 40
185.366884
 40
221.535976
 40
221.535976
 40
221.535976
 40
221.535976
 10
241.631471
 20
41.832663
 30
0.0
 10
249.548246
 20
51.013002
 30
0.0
 10
265.490827
 20
69.500113
 30
0.0
 10
279.640942
 20
104.277168
 30
0.0
 10
284.787870
 20
141.830209
 30
0.0
 10
279.640973
 20
179.383217
 30
0.0
 10
265.490647
 20
214.160119
 30
0.0
 10
249.548228
 20
232.647412
 30
0.0
 10
241.631471
 20
241.827913
 30
0.0
 11
241.631471
 21
41.832663
 31
0.0
 11
263.744877
 21
70.453894
 31
0.0
 11
278.001292
 21
104.235740
 31
0.0
 11
283.052938
 21
141.830290
 31
0.0
 11
278.001292
 21
179.424615
 31
0.0
 11
263.744877
 21
213.206234
 31
0.0
 11
241.631471
 21
241.827913
 31
0.0
  0
LINE
  5
104
100
AcDbEntity
  8
0
 62
1
100
AcDbLine
 10
141.633844
 20
283.249382
 30
0.0
 11
141.633844
 21
283.249382
 31
0.0
  0
SPLINE
  5
105
100
AcDbEntity
  8
0
 62
1
100
AcDbSpline
 70
0
 71
3
 72
10
 73
6
 74
4
 40
0.000000
 40
0.000000
 40
0.000000
 40
0.000000
 40
36.168737
 40
72.835595
 40
110.768027
 40
110.768027
 40
110.768027
 40
110.768027
 10
241.631471
 20
241.827913
 30
0.0
 10
232.451131
 20
249.708821
 30
0.0
 10
213.964019
 20
265.579174
 30
0.0
 10
179.186967
 20
280.283040
 30
0.0
 10
154.292330
 20
282.249481
 30
0.0
 10
141.633844
 20
283.249382
 30
0.0
 11
241.631471
 21
241.827913
 31
0.0
 11
213.010240
 21
263.941318
 31
0.0
 11
179.228394
 21
278.197735
 31
0.0
 11
141.633844
 21
283.249382
 31
0.0
  0
SPLINE
  5
106
100
AcDbEntity
  8
0
 62
1
100
AcDbSpline
 70
0
 71
3
 72
10
 73
6
 74
4
 40
0.000000
 40
0.000000
 40
0.000000
 40
0.000000
 40
36.079965
 40
70.958510
 40
105.363270
 40
105.363270
 40
105.363270
 40
105.363270
 10
141.633844
 20
276.350365
 30
0.0
 10
153.674117
 20
275.399198
 30
0.0
 10
177.353738
 20
273.528537
 30
0.0
 10
210.434133
 20
259.542890
 30
0.0
 10
228.020103
 20
244.447142
 30
0.0
 10
236.752958
 20
236.950883
 30
0.0
 11
141.633844
 21
276.350365
 31
0.0
 11
177.392422
 21
271.545376
 31
0.0
 11
209.526947
 21
257.984946
 31
0.0
 11
236.752958
 21
236.950883
 31
0.0
  0
SPLINE
  5
107
100
AcDbEntity
  8
0
 62
1
100
AcDbSpline
 70
0
 71
3
 72
13
 73
9
 74
7
 40
0.000000
 40
0.000000
 40
0.000000
 40
0.000000
 40
34.404262
 40
69.282366
 40
105.362048
 40
141.441985
 40
176.320391
 40
210.725039
 40
210.725039
 40
210.725039
 40
210.725039
 10
236.752958
 20
236.950883
 30
0.0
 10
244.282983
 20
228.217966
 30
0.0
 10
259.446741
 20
210.631857
 30
0.0
 10
272.905816
 20
177.552092
 30
0.0
 10
277.802073
 20
141.832417
 30
0.0
 10
272.906064
 20
106.112688
 30
0.0
 10
259.447656
 20
73.032206
 30
0.0
 10
244.283293
 20
55.446248
 30
0.0
 10
236.752958
 20
46.713396
 30
0.0
 11
236.752958
 21
236.950883
 31
0.0
 11
257.786161
 21
209.724837
 31
0.0
 11
271.346574
 21
177.590783
 31
0.0
 11
276.151708
 21
141.832510
 31
0.0
 11
271.346909
 21
106.073934
 31
0.0
 11
257.786832
 21
73.939412
 31
0.0
 11
236.752958
 21
46.713396
 31
0.0
  0
SPLINE
  5
108
100
AcDbEntity
  8
0
 62
1
100
AcDbSpline
 70
0
 71
3
 72
13
 73
9
 74
7
 40
0.000000
 40
0.000000
 40
0.000000
 40
0.000000
 40
34.404411
 40
69.282846
 40
105.362718
 40
141.442464
 40
176.320540
 40
210.725036
 40
210.725036
 40
210.725036
 40
210.725036
 10
236.752958
 20
46.713396
 30
0.0
 10
228.019978
 20
39.183367
 30
0.0
 10
210.433693
 20
24.019561
 30
0.0
 10
177.353651
 20
10.560576
 30
0.0
 10
141.633884
 20
5.664280
 30
0.0
 10
105.914247
 20
10.560254
 30
0.0
 10
72.834046
 20
24.018755
 30
0.0
 10
55.248261
 20
39.183067
 30
0.0
 10
46.515473
 20
46.713396
 30
0.0
 11
236.752958
 21
46.713396
 31
0.0
 11
209.526720
 21
25.680197
 31
0.0
 11
177.392309
 21
12.119782
 31
0.0
 11
141.633844
 21
7.314646
 31
0.0
 11
105.875460
 21
12.119445
 31
0.0
 11
73.741296
 21
25.679521
 31
0.0
 11
46.515473
 21
46.713396
 31
0.0
  0
SPLINE
  5
109
100
AcDbEntity
  8
0
 62
1
100
AcDbSpline
 70
0
 71
3
 72
13
 73
9
 74
7
 40
0.000000
 40
0.000000
 40
0.000000
 40
0.000000
 40
34.404530
 40
69.283101
 40
105.362999
 40
141.442772
 40
176.320987
 40
210.725598
 40
210.725598
 40
210.725598
 40
210.725598
 10
46.515473
 20
46.713396
 30
0.0
 10
38.985394
 20
55.446380
 30
0.0
 10
23.821484
 20
73.032676
 30
0.0
 10
10.362087
 20
106.112635
 30
0.0
 10
5.465539
 20
141.832471
 30
0.0
 10
10.361767
 20
177.552176
 30
0.0
 10
23.820680
 20
210.632294
 30
0.0
 10
38.985095
 20
228.218091
 30
0.0
 10
46.515473
 20
236.950883
 30
0.0
 11
46.515473
 21
46.713396
 31
0.0
 11
25.482080
 21
73.939634
 31
0.0
 11
11.921314
 21
106.074045
 31
0.0
 11
7.115988
 21
141.832510
 31
0.0
 11
11.920977
 21
177.590895
 31
0.0
 11
25.481407
 21
209.725061
 31
0.0
 11
46.515473
 21
236.950883
 31
0.0
  0
LINE
  5
10a
100
AcDbEntity
  8
0
 62
1
100
AcDbLine
 10
141.633844
 20
276.350365
 30
0.0
 11
141.633844
 21
276.350365
 31
0.0
  0
SPLINE
  5
10b
100
AcDbEntity
  8
0
 62
1
100
AcDbSpline
 70
0
 71
3
 72
10
 73
6
 74
4
 40
0.000000
 40
0.000000
 40
0.000000
 40
0.000000
 40
34.404375
 40
69.282617
 40
105.362323
 40
105.362323
 40
105.362323
 40
105.362323
 10
46.515473
 20
236.950883
 30
0.0
 10
55.248393
 20
244.446831
 30
0.0
 10
72.834516
 20
259.541973
 30
0.0
 10
105.914196
 20
273.528281
 30
0.0
 10
129.593647
 20
275.399112
 30
0.0
 10
141.633844
 20
276.350365
 30
0.0
 11
46.515473
 21
236.950883
 31
0.0
 11
73.741518
 21
257.984273
 31
0.0
 11
105.875571
 21
271.545039
 31
0.0
 11
141.633844
 21
276.350365
 31
0.0
  0
LINE
  5
10c
100
AcDbEntity
  8
0
 62
1
100
AcDbLine
 10
103.441782
 20
219.025281
 30
0.0
 11
103.444782
 21
219.019381
 31
0.0
  0
LINE
  5
10d
100
AcDbEntity
  8
0
 62
1
100
AcDbLine
 10
103.444782
 20
219.019381
 30
0.0
 11
58.409187
 21
201.731523
 31
0.0
  0
SPLINE
  5
10e
100
AcDbEntity
  8
0
 62
1
100
AcDbSpline
 70
0
 71
3
 72
10
 73
6
 74
4
 40
0.000000
 40
0.000000
 40
0.000000
 40
0.000000
 40
0.136833
 40
0.275753
 40
0.417332
 40
0.417332
 40
0.417332
 40
0.417332
 10
103.847951
 20
219.114801
 30
0.0
 10
103.802519
 20
219.110489
 30
0.0
 10
103.710961
 20
219.101799
 30
0.0
 10
103.574642
 20
219.071797
 30
0.0
 10
103.486348
 20
219.040884
 30
0.0
 10
103.441782
 20
219.025281
 30
0.0
 11
103.847951
 21
219.114801
 31
0.0
 11
103.712019
 21
219.099123
 31
0.0
 11
103.576327
 21
219.069352
 31
0.0
 11
103.441782
 21
219.025281
 31
0.0
  0
LINE
  5
10f
100
AcDbEntity
  8
0
 62
1
100
AcDbLine
 10
57.799559
 20
199.423220
 30
0.0
 11
104.212681
 21
153.010033
 31
0.0
  0
LINE
  5
110
100
AcDbEntity
  8
0
 62
1
100
AcDbLine
 10
104.212681
 20
153.010033
 30
0.0
 11
102.700443
 21
145.497685
 31
0.0
  0
SPLINE
  5
111
100
AcDbEntity
  8
0
 62
1
100
AcDbSpline
 70
0
 71
3
 72
13
 73
9
 74
7
 40
0.000000
 40
0.000000
 40
0.000000
 40
0.000000
 40
0.232398
 40
0.469091
 40
0.712608
 40
1.434336
 40
2.135377
 40
2.857103
 40
2.857103
 40
2.857103
 40
2.857103
 10
58.409187
 20
201.731523
 30
0.0
 10
58.335396
 20
201.707341
 30
0.0
 10
58.186450
 20
201.658530
 30
0.0
 10
57.980383
 20
201.536811
 30
0.0
 10
57.671508
 20
201.279372
 30
0.0
 10
57.383237
 20
200.775958
 30
0.0
 10
57.368564
 20
200.014545
 30
0.0
 10
57.654508
 20
199.622230
 30
0.0
 10
57.799559
 20
199.423220
 30
0.0
 11
58.409187
 21
201.731523
 31
0.0
 11
58.191078
 21
201.651291
 31
0.0
 11
57.986112
 21
201.532915
 31
0.0
 11
57.799559
 21
201.376396
 31
0.0
 11
57.440491
 21
200.750327
 31
0.0
 11
57.440491
 21
200.049286
 31
0.0
 11
57.799559
 21
199.423220
 31
0.0
  0
LINE
  5
112
100
AcDbEntity
  8
0
 62
1
100
AcDbLine
 10
103.048173
 20
144.124547
 30
0.0
 11
173.696315
 21
73.475665
 31
0.0
  0
SPLINE
  5
113
100
AcDbEntity
  8
0
 62
1
100
AcDbSpline
 70
0
 71
3
 72
10
 73
6
 74
4
 40
0.000000
 40
0.000000
 40
0.000000
 40
0.000000
 40
0.485340
 40
0.973716
 40
1.479035
 40
1.479035
 40
1.479035
 40
1.479035
 10
102.700443
 20
145.497685
 30
0.0
 10
102.670691
 20
145.337522
 30
0.0
 10
102.611000
 20
145.016194
 30
0.0
 10
102.732650
 20
144.517237
 30
0.0
 10
102.941810
 20
144.256923
 30
0.0
 10
103.048173
 20
144.124547
 30
0.0
 11
102.700443
 21
145.497685
 31
0.0
 11
102.645913
 21
145.015417
 31
0.0
 11
102.762036
 21
144.541048
 31
0.0
 11
103.048173
 21
144.124547
 31
0.0
  0
LINE
  5
114
100
AcDbEntity
  8
0
 62
1
100
AcDbLine
 10
216.950369
 20
116.729719
 30
0.0
 11
146.311846
 21
187.368247
 31
0.0
  0
LINE
  5
115
100
AcDbEntity
  8
0
 62
1
100
AcDbLine
 10
146.311846
 20
187.368247
 30
0.0
 11
146.315846
 21
187.371247
 31
0.0
  0
SPLINE
  5
116
100
AcDbEntity
  8
0
 62
1
100
AcDbSpline
 70
0
 71
3
 72
19
 73
15
 74
13
 40
0.000000
 40
0.000000
 40
0.000000
 40
0.000000
 40
8.181564
 40
16.110080
 40
23.941899
 40
31.773686
 40
39.702183
 40
47.883770
 40
56.065251
 40
63.993667
 40
71.825706
 40
79.657533
 40
87.586071
 40
95.767581
 40
95.767581
 40
95.767581
 40
95.767581
 10
173.696315
 20
73.475665
 30
0.0
 10
175.780873
 20
71.691115
 30
0.0
 10
179.885516
 20
68.177210
 30
0.0
 10
187.455805
 20
65.239795
 30
0.0
 10
195.318638
 20
64.214929
 30
0.0
 10
203.209679
 20
65.223514
 30
0.0
 10
210.693314
 20
68.244433
 30
0.0
 10
217.210777
 20
73.215193
 30
0.0
 10
222.181734
 20
79.732499
 30
0.0
 10
225.202602
 20
87.216197
 30
0.0
 10
226.211097
 20
95.107306
 30
0.0
 10
225.186200
 20
102.970231
 30
0.0
 10
222.248716
 20
110.540476
 30
0.0
 10
218.734877
 20
114.645153
 30
0.0
 10
216.950369
 20
116.729719
 30
0.0
 11
173.696315
 21
73.475665
 31
0.0
 11
180.205138
 21
68.518527
 31
0.0
 11
187.554537
 21
65.544019
 31
0.0
 11
195.323332
 21
64.552448
 31
0.0
 11
203.092089
 21
65.544063
 31
0.0
 11
210.441449
 21
68.518616
 31
0.0
 11
216.950369
 21
73.475665
 31
0.0
 11
221.907507
 21
79.984384
 31
0.0
 11
224.882014
 21
87.333675
 31
0.0
 11
225.873585
 21
95.102692
 31
0.0
 11
224.881968
 21
102.871489
 31
0.0
 11
221.907413
 21
110.220893
 31
0.0
 11
216.950369
 21
116.729719
 31
0.0
  0
LINE
  5
117
100
AcDbEntity
  8
0
 62
1
100
AcDbLine
 10
145.072908
 20
187.761879
 30
0.0
 11
145.072908
 21
187.757379
 31
0.0
  0
LINE
  5
118
100
AcDbEntity
  8
0
 62
1
100
AcDbLine
 10
145.072908
 20
187.757379
 30
0.0
 11
137.331220
 21
186.297676
 31
0.0
  0
LINE
  5
119
100
AcDbEntity
  8
0
 62
1
100
AcDbLine
 10
137.331220
 20
186.297676
 30
0.0
 11
104.937290
 21
218.692346
 31
0.0
  0
LINE
  5
11a
100
AcDbEntity
  8
0
 62
1
100
AcDbLine
 10
104.937290
 20
218.692346
 30
0.0
 11
104.934290
 21
218.692346
 31
0.0
  0
SPLINE
  5
11b
100
AcDbEntity
  8
0
 62
1
100
AcDbSpline
 70
0
 71
3
 72
10
 73
6
 74
4
 40
0.000000
 40
0.000000
 40
0.000000
 40
0.000000
 40
0.443187
 40
0.889215
 40
1.350524
 40
1.350524
 40
1.350524
 40
1.350524
 10
146.315846
 20
187.371247
 30
0.0
 10
146.201973
 20
187.466628
 30
0.0
 10
145.973495
 20
187.658003
 30
0.0
 10
145.530511
 20
187.802129
 30
0.0
 10
145.227146
 20
187.775445
 30
0.0
 10
145.072908
 20
187.761879
 30
0.0
 11
146.315846
 21
187.371247
 31
0.0
 11
145.958528
 21
187.633425
 31
0.0
 11
145.534134
 21
187.770651
 31
0.0
 11
145.072908
 21
187.761879
 31
0.0
  0
LINE
  5
11c
100
AcDbEntity
  8
0
 62
1
100
AcDbLine
 10
103.848941
 20
219.114792
 30
0.0
 11
103.847951
 21
219.114801
 31
0.0
  0
LINE
  5
11d
100
AcDbEntity
  8
0
 62
1
100
AcDbLine
 10
103.590492
 20
216.131026
 30
0.0
 11
134.042345
 21
185.679177
 31
0.0
  0
LINE
  5
11e
100
AcDbEntity
  8
0
 62
1
100
AcDbLine
 10
134.042345
 20
185.679177
 30
0.0
 11
134.040345
 21
185.679177
 31
0.0
  0
LINE
  5
11f
100
AcDbEntity
  8
0
 62
1
100
AcDbLine
 10
134.040345
 20
185.679177
 30
0.0
 11
125.439738
 21
184.056703
 31
0.0
  0
LINE
  5
120
100
AcDbEntity
  8
0
 62
1
100
AcDbLine
 10
125.439738
 20
184.056703
 30
0.0
 11
103.501982
 21
205.994463
 31
0.0
  0
SPLINE
  5
121
100
AcDbEntity
  8
0
 62
1
100
AcDbSpline
 70
0
 71
3
 72
10
 73
6
 74
4
 40
0.000000
 40
0.000000
 40
0.000000
 40
0.000000
 40
0.399135
 40
0.796254
 40
1.197873
 40
1.197873
 40
1.197873
 40
1.197873
 10
104.934290
 20
218.692346
 30
0.0
 10
104.833698
 20
218.780372
 30
0.0
 10
104.633023
 20
218.955981
 30
0.0
 10
104.250884
 20
219.105284
 30
0.0
 10
103.983424
 20
219.111611
 30
0.0
 10
103.848941
 20
219.114792
 30
0.0
 11
104.934290
 21
218.692346
 31
0.0
 11
104.619112
 21
218.937238
 31
0.0
 11
104.249192
 21
219.081678
 31
0.0
 11
103.848941
 21
219.114792
 31
0.0
  0
LINE
  5
122
100
AcDbEntity
  8
0
 62
1
100
AcDbLine
 10
101.548805
 20
204.041282
 30
0.0
 11
122.153373
 21
183.436717
 31
0.0
  0
LINE
  5
123
100
AcDbEntity
  8
0
 62
1
100
AcDbLine
 10
122.153373
 20
183.436717
 30
0.0
 11
110.776101
 21
181.291180
 31
0.0
  0
LINE
  5
124
100
AcDbEntity
  8
0
 62
1
100
AcDbLine
 10
110.776101
 20
181.291180
 30
0.0
 11
110.776601
 21
181.288180
 31
0.0
  0
LINE
  5
125
100
AcDbEntity
  8
0
 62
1
100
AcDbLine
 10
110.776601
 20
181.288180
 30
0.0
 11
110.776101
 21
181.288180
 31
0.0
  0
LINE
  5
126
100
AcDbEntity
  8
0
 62
1
100
AcDbLine
 10
110.776101
 20
181.288180
 30
0.0
 11
110.774101
 21
181.295180
 31
0.0
  0
SPLINE
  5
127
100
AcDbEntity
  8
0
 62
1
100
AcDbSpline
 70
0
 71
3
 72
13
 73
9
 74
7
 40
0.000000
 40
0.000000
 40
0.000000
 40
0.000000
 40
0.721727
 40
1.422769
 40
2.144496
 40
2.866224
 40
3.567266
 40
4.288994
 40
4.288994
 40
4.288994
 40
4.288994
 10
103.501982
 20
205.994463
 30
0.0
 10
103.302987
 20
206.139546
 30
0.0
 10
102.910702
 20
206.425552
 30
0.0
 10
102.149060
 20
206.410417
 30
0.0
 10
101.502059
 20
206.041209
 30
0.0
 10
101.132853
 20
205.394206
 30
0.0
 10
101.117717
 20
204.632564
 30
0.0
 10
101.403723
 20
204.240277
 30
0.0
 10
101.548805
 20
204.041282
 30
0.0
 11
103.501982
 21
205.994463
 31
0.0
 11
102.875914
 21
206.353531
 31
0.0
 11
102.174873
 21
206.353531
 31
0.0
 11
101.548805
 21
205.994463
 31
0.0
 11
101.189739
 21
205.368394
 31
0.0
 11
101.189739
 21
204.667352
 31
0.0
 11
101.548805
 21
204.041282
 31
0.0
  0
LINE
  5
128
100
AcDbEntity
  8
0
 62
1
100
AcDbLine
 10
109.656892
 20
180.084192
 30
0.0
 11
104.862770
 21
156.265828
 31
0.0
  0
LINE
  5
129
100
AcDbEntity
  8
0
 62
1
100
AcDbLine
 10
104.862770
 20
156.265828
 30
0.0
 11
61.249892
 21
199.878707
 31
0.0
  0
LINE
  5
12a
100
AcDbEntity
  8
0
 62
1
100
AcDbLine
 10
61.249892
 20
199.878707
 30
0.0
 11
103.590492
 21
216.131026
 31
0.0
  0
LINE
  5
12b
100
AcDbEntity
  8
0
 62
1
100
AcDbLine
 10
144.861769
 20
184.913438
 30
0.0
 11
214.997942
 21
114.775792
 31
0.0
  0
SPLINE
  5
12c
100
AcDbEntity
  8
0
 62
1
100
AcDbSpline
 70
0
 71
3
 72
31
 73
27
 74
25
 40
0.000000
 40
0.000000
 40
0.000000
 40
0.000000
 40
0.030697
 40
0.061024
 40
0.091370
 40
0.104766
 40
0.118019
 40
0.131228
 40
0.194418
 40
0.257044
 40
0.319266
 40
0.325664
 40
0.331624
 40
0.337434
 40
0.550380
 40
0.760117
 40
0.968717
 40
1.040870
 40
1.112872
 40
1.184987
 40
1.258360
 40
1.331692
 40
1.405295
 40
1.522824
 40
1.640793
 40
1.759675
 40
1.759675
 40
1.759675
 40
1.759675
 10
110.774101
 20
181.295180
 30
0.0
 10
110.764122
 20
181.292893
 30
0.0
 10
110.744284
 20
181.288347
 30
0.0
 10
110.715306
 20
181.278896
 30
0.0
 10
110.691508
 20
181.272323
 30
0.0
 10
110.673301
 20
181.266889
 30
0.0
 10
110.660421
 20
181.263621
 30
0.0
 10
110.631417
 20
181.256418
 30
0.0
 10
110.587301
 20
181.241988
 30
0.0
 10
110.528442
 20
181.220663
 30
0.0
 10
110.487253
 20
181.205438
 30
0.0
 10
110.465232
 20
181.193902
 30
0.0
 10
110.459911
 20
181.190997
 30
0.0
 10
110.390466
 20
181.162749
 30
0.0
 10
110.266895
 20
181.088975
 30
0.0
 10
110.099702
 20
180.960577
 30
0.0
 10
109.987401
 20
180.840562
 30
0.0
 10
109.915971
 20
180.747137
 30
0.0
 10
109.875243
 20
180.687607
 30
0.0
 10
109.837417
 20
180.625724
 30
0.0
 10
109.802764
 20
180.561499
 30
0.0
 10
109.771463
 20
180.495028
 30
0.0
 10
109.738184
 20
180.413356
 30
0.0
 10
109.704530
 20
180.315936
 30
0.0
 10
109.673349
 20
180.201733
 30
0.0
 10
109.662392
 20
180.123473
 30
0.0
 10
109.656892
 20
180.084192
 30
0.0
 11
110.774101
 21
181.295180
 31
0.0
 11
110.744286
 21
181.287873
 31
0.0
 11
110.715249
 21
181.279121
 31
0.0
 11
110.686101
 21
181.270680
 31
0.0
 11
110.673231
 21
181.266965
 31
0.0
 11
110.660405
 21
181.263628
 31
0.0
 11
110.647601
 21
181.260380
 31
0.0
 11
110.587259
 21
181.241624
 31
0.0
 11
110.528290
 21
181.220536
 31
0.0
 11
110.470781
 21
181.196780
 31
0.0
 11
110.465111
 21
181.193817
 31
0.0
 11
110.459818
 21
181.191076
 31
0.0
 11
110.454481
 21
181.188780
 31
0.0
 11
110.268495
 21
181.085073
 31
0.0
 11
110.103175
 21
180.956004
 31
0.0
 11
109.960262
 21
180.804051
 31
0.0
 11
109.916452
 21
180.746721
 31
0.0
 11
109.875782
 21
180.687304
 31
0.0
 11
109.838192
 21
180.625761
 31
0.0
 11
109.803355
 21
180.561186
 31
0.0
 11
109.772096
 21
180.494850
 31
0.0
 11
109.744192
 21
180.426741
 31
0.0
 11
109.705804
 21
180.315659
 31
0.0
 11
109.675881
 21
180.201548
 31
0.0
 11
109.656892
 21
180.084192
 31
0.0
  0
SPLINE
  5
12d
100
AcDbEntity
  8
0
 62
1
100
AcDbSpline
 70
0
 71
3
 72
13
 73
9
 74
7
 40
0.000000
 40
0.000000
 40
0.000000
 40
0.000000
 40
7.441000
 40
14.653242
 40
21.780040
 40
28.907020
 40
36.119570
 40
43.560793
 40
43.560793
 40
43.560793
 40
43.560793
 10
214.997942
 20
114.775792
 30
0.0
 10
216.620948
 20
112.879710
 30
0.0
 10
219.817065
 20
109.145840
 30
0.0
 10
222.486698
 20
102.260067
 30
0.0
 10
223.423559
 20
95.100398
 30
0.0
 10
222.486718
 20
87.940642
 30
0.0
 10
219.817258
 20
81.054532
 30
0.0
 10
216.621006
 20
77.320528
 30
0.0
 10
214.997942
 20
75.424392
 30
0.0
 11
214.997942
 21
114.775792
 31
0.0
 11
219.505939
 21
108.855788
 31
0.0
 11
222.210849
 21
102.169990
 31
0.0
 11
223.112519
 21
95.100462
 31
0.0
 11
222.210907
 21
88.030741
 31
0.0
 11
219.506055
 21
81.344587
 31
0.0
 11
214.997942
 21
75.424392
 31
0.0
  0
LINE
  5
12e
100
AcDbEntity
  8
0
 62
1
100
AcDbLine
 10
175.650982
 20
75.424392
 30
0.0
 11
105.517779
 21
145.557605
 31
0.0
  0
LINE
  5
12f
100
AcDbEntity
  8
0
 62
1
100
AcDbLine
 10
105.517779
 20
145.557605
 30
0.0
 11
107.053686
 21
153.189063
 31
0.0
  0
SPLINE
  5
130
100
AcDbEntity
  8
0
 62
1
100
AcDbSpline
 70
0
 71
3
 72
13
 73
9
 74
7
 40
0.000000
 40
0.000000
 40
0.000000
 40
0.000000
 40
7.439823
 40
14.651490
 40
21.778164
 40
28.903679
 40
36.115655
 40
43.556775
 40
43.556775
 40
43.556775
 40
43.556775
 10
214.997942
 20
75.424392
 30
0.0
 10
213.102377
 20
73.801367
 30
0.0
 10
209.369379
 20
70.605090
 30
0.0
 10
202.484154
 20
67.935624
 30
0.0
 10
195.325216
 20
66.998770
 30
0.0
 10
188.166188
 20
67.935724
 30
0.0
 10
181.280892
 20
70.605229
 30
0.0
 10
177.547081
 20
73.801344
 30
0.0
 10
175.650982
 20
75.424392
 30
0.0
 11
214.997942
 21
75.424392
 31
0.0
 11
209.079416
 21
70.916396
 31
0.0
 11
202.394236
 21
68.211492
 31
0.0
 11
195.324832
 21
67.309824
 31
0.0
 11
188.256589
 21
68.211436
 31
0.0
 11
181.571053
 21
70.916285
 31
0.0
 11
175.650982
 21
75.424392
 31
0.0
  0
LINE
  5
131
100
AcDbEntity
  8
0
 62
1
100
AcDbLine
 10
107.056686
 20
153.199463
 30
0.0
 11
107.055686
 21
153.199463
 31
0.0
  0
LINE
  5
132
100
AcDbEntity
  8
0
 62
1
100
AcDbLine
 10
107.055686
 20
153.199463
 30
0.0
 11
112.197579
 21
178.754304
 31
0.0
  0
LINE
  5
133
100
AcDbEntity
  8
0
 62
1
100
AcDbLine
 10
112.197579
 20
178.754304
 30
0.0
 11
144.861769
 21
184.913438
 31
0.0
  0
SPLINE
  5
134
100
AcDbEntity
  8
0
 62
1
100
AcDbSpline
 70
0
 71
3
 72
10
 73
6
 74
4
 40
0.000000
 40
0.000000
 40
0.000000
 40
0.000000
 40
0.003914
 40
0.007492
 40
0.010857
 40
0.010857
 40
0.010857
 40
0.010857
 10
107.053686
 20
153.189063
 30
0.0
 10
107.054067
 20
153.190310
 30
0.0
 10
107.054795
 20
153.192698
 30
0.0
 10
107.056282
 20
153.196031
 30
0.0
 10
107.056554
 20
153.198343
 30
0.0
 10
107.056686
 20
153.199463
 30
0.0
 11
107.053686
 21
153.189063
 31
0.0
 11
107.054909
 21
153.192781
 31
0.0
 11
107.056131
 21
153.196144
 31
0.0
 11
107.056686
 21
153.199463
 31
0.0
  0
LINE
  5
135
100
AcDbEntity
  8
0
 62
1
100
AcDbLine
 10
143.191951
 20
158.235515
 30
0.0
 11
132.186818
 21
147.230392
 31
0.0
  0
SPLINE
  5
136
100
AcDbEntity
  8
0
 62
1
100
AcDbSpline
 70
0
 71
3
 72
10
 73
6
 74
4
 40
0.000000
 40
0.000000
 40
0.000000
 40
0.000000
 40
0.353385
 40
0.711444
 40
1.081542
 40
1.081542
 40
1.081542
 40
1.081542
 10
144.168540
 20
158.639475
 30
0.0
 10
144.050670
 20
158.630514
 30
0.0
 10
143.813371
 20
158.612474
 30
0.0
 10
143.471646
 20
158.474132
 30
0.0
 10
143.286205
 20
158.315926
 30
0.0
 10
143.191951
 20
158.235515
 30
0.0
 11
144.168540
 21
158.639475
 31
0.0
 11
143.818017
 21
158.594591
 31
0.0
 11
143.486241
 21
158.459939
 31
0.0
 11
143.191951
 21
158.235515
 31
0.0
  0
LINE
  5
137
100
AcDbEntity
  8
0
 62
1
100
AcDbLine
 10
132.186818
 20
145.277205
 30
0.0
 11
169.251371
 21
108.212662
 31
0.0
  0
LINE
  5
138
100
AcDbEntity
  8
0
 62
1
100
AcDbLine
 10
169.251371
 20
108.212662
 30
0.0
 11
167.375874
 21
106.337164
 31
0.0
  0
SPLINE
  5
139
100
AcDbEntity
  8
0
 62
1
100
AcDbSpline
 70
0
 71
3
 72
10
 73
6
 74
4
 40
0.000000
 40
0.000000
 40
0.000000
 40
0.000000
 40
0.721733
 40
1.422777
 40
2.144504
 40
2.144504
 40
2.144504
 40
2.144504
 10
132.186818
 20
147.230392
 30
0.0
 10
132.042773
 20
147.032432
 30
0.0
 10
131.758811
 20
146.642185
 30
0.0
 10
131.758810
 20
145.865407
 30
0.0
 10
132.042773
 20
145.475163
 30
0.0
 10
132.186818
 20
145.277205
 30
0.0
 11
132.186818
 21
147.230392
 31
0.0
 11
131.827752
 21
146.604317
 31
0.0
 11
131.827752
 21
145.903273
 31
0.0
 11
132.186818
 21
145.277205
 31
0.0
  0
LINE
  5
13a
100
AcDbEntity
  8
0
 62
1
100
AcDbLine
 10
167.375874
 20
104.383987
 30
0.0
 11
182.320651
 21
89.439200
 31
0.0
  0
SPLINE
  5
13b
100
AcDbEntity
  8
0
 62
1
100
AcDbSpline
 70
0
 71
3
 72
10
 73
6
 74
4
 40
0.000000
 40
0.000000
 40
0.000000
 40
0.000000
 40
0.721730
 40
1.422771
 40
2.144501
 40
2.144501
 40
2.144501
 40
2.144501
 10
167.375874
 20
106.337164
 30
0.0
 10
167.231826
 20
106.139207
 30
0.0
 10
166.947859
 20
105.748966
 30
0.0
 10
166.947859
 20
104.972186
 30
0.0
 10
167.231826
 20
104.581945
 30
0.0
 10
167.375874
 20
104.383987
 30
0.0
 11
167.375874
 21
106.337164
 31
0.0
 11
167.016802
 21
105.711097
 31
0.0
 11
167.016802
 21
105.010055
 31
0.0
 11
167.375874
 21
104.383987
 31
0.0
  0
LINE
  5
13c
100
AcDbEntity
  8
0
 62
1
100
AcDbLine
 10
184.273838
 20
89.439200
 30
0.0
 11
186.148586
 21
91.314697
 31
0.0
  0
LINE
  5
13d
100
AcDbEntity
  8
0
 62
1
100
AcDbLine
 10
186.148586
 20
91.314697
 30
0.0
 11
195.499441
 21
81.964592
 31
0.0
  0
SPLINE
  5
13e
100
AcDbEntity
  8
0
 62
1
100
AcDbSpline
 70
0
 71
3
 72
10
 73
6
 74
4
 40
0.000000
 40
0.000000
 40
0.000000
 40
0.000000
 40
0.721727
 40
1.422771
 40
2.144504
 40
2.144504
 40
2.144504
 40
2.144504
 10
182.320651
 20
89.439200
 30
0.0
 10
182.518610
 20
89.295155
 30
0.0
 10
182.908853
 20
89.011192
 30
0.0
 10
183.685632
 20
89.011194
 30
0.0
 10
184.075878
 20
89.295155
 30
0.0
 10
184.273838
 20
89.439200
 30
0.0
 11
182.320651
 21
89.439200
 31
0.0
 11
182.946720
 21
89.080134
 31
0.0
 11
183.647764
 21
89.080134
 31
0.0
 11
184.273838
 21
89.439200
 31
0.0
  0
LINE
  5
13f
100
AcDbEntity
  8
0
 62
1
100
AcDbLine
 10
197.452618
 20
81.964592
 30
0.0
 11
208.457012
 21
92.969725
 31
0.0
  0
SPLINE
  5
140
100
AcDbEntity
  8
0
 62
1
100
AcDbSpline
 70
0
 71
3
 72
10
 73
6
 74
4
 40
0.000000
 40
0.000000
 40
0.000000
 40
0.000000
 40
0.721727
 40
1.422768
 40
2.144495
 40
2.144495
 40
2.144495
 40
2.144495
 10
195.499441
 20
81.964592
 30
0.0
 10
195.697399
 20
81.820546
 30
0.0
 10
196.087642
 20
81.536584
 30
0.0
 10
196.864418
 20
81.536584
 30
0.0
 10
197.254660
 20
81.820546
 30
0.0
 10
197.452618
 20
81.964592
 30
0.0
 11
195.499441
 21
81.964592
 31
0.0
 11
196.125509
 21
81.605526
 31
0.0
 11
196.826550
 21
81.605526
 31
0.0
 11
197.452618
 21
81.964592
 31
0.0
  0
LINE
  5
141
100
AcDbEntity
  8
0
 62
1
100
AcDbLine
 10
208.457012
 20
94.922902
 30
0.0
 11
199.106906
 21
104.273008
 31
0.0
  0
LINE
  5
142
100
AcDbEntity
  8
0
 62
1
100
AcDbLine
 10
199.106906
 20
104.273008
 30
0.0
 11
200.983883
 21
106.149985
 31
0.0
  0
SPLINE
  5
143
100
AcDbEntity
  8
0
 62
1
100
AcDbSpline
 70
0
 71
3
 72
10
 73
6
 74
4
 40
0.000000
 40
0.000000
 40
0.000000
 40
0.000000
 40
0.721727
 40
1.422768
 40
2.144495
 40
2.144495
 40
2.144495
 40
2.144495
 10
208.457012
 20
92.969725
 30
0.0
 10
208.601057
 20
93.167683
 30
0.0
 10
208.885019
 20
93.557925
 30
0.0
 10
208.885019
 20
94.334702
 30
0.0
 10
208.601057
 20
94.724944
 30
0.0
 10
208.457012
 20
94.922902
 30
0.0
 11
208.457012
 21
92.969725
 31
0.0
 11
208.816078
 21
93.595793
 31
0.0
 11
208.816078
 21
94.296834
 31
0.0
 11
208.457012
 21
94.922902
 31
0.0
  0
LINE
  5
144
100
AcDbEntity
  8
0
 62
1
100
AcDbLine
 10
200.983883
 20
108.103162
 30
0.0
 11
186.049446
 21
123.037599
 31
0.0
  0
LINE
  5
145
100
AcDbEntity
  8
0
 62
1
100
AcDbLine
 10
186.049446
 20
123.037599
 30
0.0
 11
186.039046
 21
123.047999
 31
0.0
  0
SPLINE
  5
146
100
AcDbEntity
  8
0
 62
1
100
AcDbSpline
 70
0
 71
3
 72
10
 73
6
 74
4
 40
0.000000
 40
0.000000
 40
0.000000
 40
0.000000
 40
0.721727
 40
1.422768
 40
2.144495
 40
2.144495
 40
2.144495
 40
2.144495
 10
200.983883
 20
106.149985
 30
0.0
 10
201.127928
 20
106.347943
 30
0.0
 10
201.411890
 20
106.738185
 30
0.0
 10
201.411890
 20
107.514961
 30
0.0
 10
201.127928
 20
107.905204
 30
0.0
 10
200.983883
 20
108.103162
 30
0.0
 11
200.983883
 21
106.149985
 31
0.0
 11
201.342949
 21
106.776053
 31
0.0
 11
201.342949
 21
107.477094
 31
0.0
 11
200.983883
 21
108.103162
 31
0.0
  0
LINE
  5
147
100
AcDbEntity
  8
0
 62
1
100
AcDbLine
 10
184.085869
 20
123.047999
 30
0.0
 11
182.208892
 21
121.171012
 31
0.0
  0
LINE
  5
148
100
AcDbEntity
  8
0
 62
1
100
AcDbLine
 10
182.208892
 20
121.171012
 30
0.0
 11
145.154698
 21
158.225945
 31
0.0
  0
LINE
  5
149
100
AcDbEntity
  8
0
 62
1
100
AcDbLine
 10
145.154698
 20
158.225945
 30
0.0
 11
145.144698
 21
158.235945
 31
0.0
  0
SPLINE
  5
14a
100
AcDbEntity
  8
0
 62
1
100
AcDbSpline
 70
0
 71
3
 72
10
 73
6
 74
4
 40
0.000000
 40
0.000000
 40
0.000000
 40
0.000000
 40
0.721733
 40
1.422774
 40
2.144495
 40
2.144495
 40
2.144495
 40
2.144495
 10
186.039046
 20
123.047999
 30
0.0
 10
185.841086
 20
123.192044
 30
0.0
 10
185.450840
 20
123.476005
 30
0.0
 10
184.674064
 20
123.476008
 30
0.0
 10
184.283825
 20
123.192044
 30
0.0
 10
184.085869
 20
123.047999
 30
0.0
 11
186.039046
 21
123.047999
 31
0.0
 11
185.412971
 21
123.407065
 31
0.0
 11
184.711930
 21
123.407065
 31
0.0
 11
184.085869
 21
123.047999
 31
0.0
  0
LINE
  5
14b
100
AcDbEntity
  8
0
 62
1
100
AcDbLine
 10
144.168110
 20
158.639895
 30
0.0
 11
144.168540
 21
158.639475
 31
0.0
  0
LINE
  5
14c
100
AcDbEntity
  8
0
 62
1
100
AcDbLine
 10
144.167540
 20
155.305750
 30
0.0
 11
180.256235
 21
119.217795
 31
0.0
  0
LINE
  5
14d
100
AcDbEntity
  8
0
 62
1
100
AcDbLine
 10
180.256235
 20
119.217795
 30
0.0
 11
171.204288
 21
110.165849
 31
0.0
  0
LINE
  5
14e
100
AcDbEntity
  8
0
 62
1
100
AcDbLine
 10
171.204288
 20
110.165849
 30
0.0
 11
135.116334
 21
146.253803
 31
0.0
  0
LINE
  5
14f
100
AcDbEntity
  8
0
 62
1
100
AcDbLine
 10
135.116334
 20
146.253803
 30
0.0
 11
144.167540
 21
155.305750
 31
0.0
  0
LINE
  5
150
100
AcDbEntity
  8
0
 62
1
100
AcDbLine
 10
185.062987
 20
120.118183
 30
0.0
 11
198.054587
 21
107.126573
 31
0.0
  0
LINE
  5
151
100
AcDbEntity
  8
0
 62
1
100
AcDbLine
 10
198.054587
 20
107.126573
 30
0.0
 11
196.177610
 21
105.248866
 31
0.0
  0
LINE
  5
152
100
AcDbEntity
  8
0
 62
1
100
AcDbLine
 10
196.177610
 20
105.248866
 30
0.0
 11
185.172477
 21
94.243723
 31
0.0
  0
LINE
  5
153
100
AcDbEntity
  8
0
 62
1
100
AcDbLine
 10
185.172477
 20
94.243723
 30
0.0
 11
183.294760
 21
92.366746
 31
0.0
  0
LINE
  5
154
100
AcDbEntity
  8
0
 62
1
100
AcDbLine
 10
183.294760
 20
92.366746
 30
0.0
 11
170.303160
 21
105.358356
 31
0.0
  0
LINE
  5
155
100
AcDbEntity
  8
0
 62
1
100
AcDbLine
 10
170.303160
 20
105.358356
 30
0.0
 11
183.186010
 21
118.240466
 31
0.0
  0
LINE
  5
156
100
AcDbEntity
  8
0
 62
1
100
AcDbLine
 10
183.186010
 20
118.240466
 30
0.0
 11
183.189010
 21
118.244466
 31
0.0
  0
LINE
  5
157
100
AcDbEntity
  8
0
 62
1
100
AcDbLine
 10
183.189010
 20
118.244466
 30
0.0
 11
185.062987
 21
120.118183
 31
0.0
  0
LINE
  5
158
100
AcDbEntity
  8
0
 62
1
100
AcDbLine
 10
197.154199
 20
102.319831
 30
0.0
 11
205.526976
 21
93.946313
 31
0.0
  0
LINE
  5
159
100
AcDbEntity
  8
0
 62
1
100
AcDbLine
 10
205.526976
 20
93.946313
 30
0.0
 11
196.475020
 21
84.895097
 31
0.0
  0
LINE
  5
15a
100
AcDbEntity
  8
0
 62
1
100
AcDbLine
 10
196.475020
 20
84.895097
 30
0.0
 11
188.102243
 21
93.267874
 31
0.0
  0
LINE
  5
15b
100
AcDbEntity
  8
0
 62
1
100
AcDbLine
 10
188.102243
 20
93.267874
 30
0.0
 11
197.154199
 21
102.319831
 31
0.0
  0
SPLINE
  5
15c
100
AcDbEntity
  8
0
 62
1
100
AcDbSpline
 70
0
 71
3
 72
10
 73
6
 74
4
 40
0.000000
 40
0.000000
 40
0.000000
 40
0.000000
 40
0.370093
 40
0.728152
 40
1.081537
 40
1.081537
 40
1.081537
 40
1.081537
 10
145.144698
 20
158.235945
 30
0.0
 10
145.050444
 20
158.316353
 30
0.0
 10
144.865002
 20
158.474555
 30
0.0
 10
144.523278
 20
158.612894
 30
0.0
 10
144.285980
 20
158.630934
 30
0.0
 10
144.168110
 20
158.639895
 30
0.0
 11
145.144698
 21
158.235945
 31
0.0
 11
144.850409
 21
158.460362
 31
0.0
 11
144.518633
 21
158.595011
 31
0.0
 11
144.168110
 21
158.639895
 31
0.0
  0
ENDSEC
  0
SECTION
  2
OBJECTS
  0
DICTIONARY
  5
C
330
0
100
AcDbDictionary
  3
ACAD_GROUP
350
D
  3
ACAD_MLINESTYLE
350
17
  0
DICTIONARY
  5
D
330
C
100
AcDbDictionary
  0
DICTIONARY
  5
1A
330
C
100
AcDbDictionary
  0
DICTIONARY
  5
17
330
C
100
AcDbDictionary
  3
STANDARD
350
18
  0
DICTIONARY
  5
19
330
C
100
AcDbDictionary
  0
ENDSEC
  0
EOF
