  0
SECTION
  2
HEADER
  9
$ACADVER
  1
AC1014
  9
$HANDSEED
  5
FFFF
  9
$MEASUREMENT
 70
     1
  0
ENDSEC
  0
SECTION
  2
TABLES
  0
TABLE
  2
VPORT
  5
8
330
0
100
AcDbSymbolTable
 70
     4
  0
VPORT
  5
2E
330
8
100
AcDbSymbolTableRecord
100
AcDbViewportTableRecord
  2
*ACTIVE
 70
     0
 10
0.0
 20
0.0
 11
1.0
 21
1.0
 12
210.0
 22
148.5
 13
0.0
 23
0.0
 14
10.0
 24
10.0
 15
10.0
 25
10.0
 16
0.0
 26
0.0
 36
1.0
 17
0.0
 27
0.0
 37
0.0
 40
341.0
 41
1.24
 42
50.0
 43
0.0
 44
0.0
 50
0.0
 51
0.0
 71
     0
 72
   100
 73
     1
 74
     3
 75
     0
 76
     0
 77
     0
 78
     0
  0
ENDTAB
  0
TABLE
  2
LTYPE
  5
5
330
0
100
AcDbSymbolTable
 70
     1
  0
LTYPE
  5
14
330
5
100
AcDbSymbolTableRecord
100
AcDbLinetypeTableRecord
  2
BYBLOCK
 70
     0
  3

 72
    65
 73
     0
 40
0.0
  0
LTYPE
  5
15
330
5
100
AcDbSymbolTableRecord
100
AcDbLinetypeTableRecord
  2
BYLAYER
 70
     0
  3

 72
    65
 73
     0
 40
0.0
  0
LTYPE
  5
16
330
5
100
AcDbSymbolTableRecord
100
AcDbLinetypeTableRecord
  2
CONTINUOUS
 70
     0
  3
Solid line
 72
    65
 73
     0
 40
0.0
  0
ENDTAB
  0
TABLE
  2
LAYER
  5
2
100
AcDbSymbolTable
 70
1
  0
LAYER
  5
50
100
AcDbSymbolTableRecord
100
AcDbLayerTableRecord
  2
0
 70
0
  6
CONTINUOUS
  0
ENDTAB
  0
TABLE
  2
STYLE
  5
3
330
0
100
AcDbSymbolTable
 70
     1
  0
STYLE
  5
11
330
3
100
AcDbSymbolTableRecord
100
AcDbTextStyleTableRecord
  2
STANDARD
 70
     0
 40
0.0
 41
1.0
 50
0.0
 71
     0
 42
2.5
  3
txt
  4

  0
ENDTAB
  0
TABLE
  2
VIEW
  5
6
330
0
100
AcDbSymbolTable
 70
     0
  0
ENDTAB
  0
TABLE
  2
UCS
  5
7
330
0
100
AcDbSymbolTable
 70
     0
  0
ENDTAB
  0
TABLE
  2
APPID
  5
9
330
0
100
AcDbSymbolTable
 70
     2
  0
APPID
  5
12
330
9
100
AcDbSymbolTableRecord
100
AcDbRegAppTableRecord
  2
ACAD
 70
     0
  0
ENDTAB
  0
TABLE
  2
DIMSTYLE
  5
A
330
0
100
AcDbSymbolTable
 70
     1
  0
DIMSTYLE
105
27
330
A
100
AcDbSymbolTableRecord
100
AcDbDimStyleTableRecord
  2
ISO-25
 70
     0
  3

  4

  5

  6

  7

 40
1.0
 41
2.5
 42
0.625
 43
3.75
 44
1.25
 45
0.0
 46
0.0
 47
0.0
 48
0.0
140
2.5
141
2.5
142
0.0
143
0.03937007874016
144
1.0
145
0.0
146
1.0
147
0.625
 71
     0
 72
     0
 73
     0
 74
     0
 75
     0
 76
     0
 77
     1
 78
     8
170
     0
171
     3
172
     1
173
     0
174
     0
175
     0
176
     0
177
     0
178
     0
270
     2
271
     2
272
     2
273
     2
274
     3
340
11
275
     0
280
     0
281
     0
282
     0
283
     0
284
     8
285
     0
286
     0
287
     3
288
     0
  0
ENDTAB
  0
TABLE
  2
BLOCK_RECORD
  5
1
330
0
100
AcDbSymbolTable
 70
     1
  0
BLOCK_RECORD
  5
1F
330
1
100
AcDbSymbolTableRecord
100
AcDbBlockTableRecord
  2
*MODEL_SPACE
  0
BLOCK_RECORD
  5
1B
330
1
100
AcDbSymbolTableRecord
100
AcDbBlockTableRecord
  2
*PAPER_SPACE
  0
ENDTAB
  0
ENDSEC
  0
SECTION
  2
BLOCKS
  0
BLOCK
  5
20
330
1F
100
AcDbEntity
  8
0
100
AcDbBlockBegin
  2
*MODEL_SPACE
 70
     0
 10
0.0
 20
0.0
 30
0.0
  3
*MODEL_SPACE
  1

  0
ENDBLK
  5
21
330
1F
100
AcDbEntity
  8
0
100
AcDbBlockEnd
  0
BLOCK
  5
1C
330
1B
100
AcDbEntity
 67
     1
  8
0
100
AcDbBlockBegin
  2
*PAPER_SPACE
  1

  0
ENDBLK
  5
1D
330
1B
100
AcDbEntity
 67
     1
  8
0
100
AcDbBlockEnd
  0
ENDSEC
  0
SECTION
  2
ENTITIES
  0
LINE
  5
100
100
AcDbEntity
  8
0
 62
7
100
AcDbLine
 10
37.500000
 20
57.832031
 30
0.0
 11
33.607406
 21
57.465134
 31
0.0
  0
LINE
  5
101
100
AcDbEntity
  8
0
 62
7
100
AcDbLine
 10
33.607406
 20
57.465134
 30
0.0
 11
29.979859
 21
56.412964
 31
0.0
  0
LINE
  5
102
100
AcDbEntity
  8
0
 62
7
100
AcDbLine
 10
29.979859
 20
56.412964
 30
0.0
 11
26.695633
 21
54.748306
 31
0.0
  0
LINE
  5
103
100
AcDbEntity
  8
0
 62
7
100
AcDbLine
 10
26.695633
 20
54.748306
 30
0.0
 11
23.833008
 21
52.543945
 31
0.0
  0
LINE
  5
104
100
AcDbEntity
  8
0
 62
7
100
AcDbLine
 10
23.833008
 20
52.543945
 30
0.0
 11
21.470260
 21
49.872665
 31
0.0
  0
LINE
  5
105
100
AcDbEntity
  8
0
 62
7
100
AcDbLine
 10
21.470260
 20
49.872665
 30
0.0
 11
19.685669
 21
46.807251
 31
0.0
  0
LINE
  5
106
100
AcDbEntity
  8
0
 62
7
100
AcDbLine
 10
19.685669
 20
46.807251
 30
0.0
 11
18.557510
 21
43.420487
 31
0.0
  0
LINE
  5
107
100
AcDbEntity
  8
0
 62
7
100
AcDbLine
 10
18.557510
 20
43.420487
 30
0.0
 11
18.164062
 21
39.785156
 31
0.0
  0
LINE
  5
108
100
AcDbEntity
  8
0
 62
7
100
AcDbLine
 10
18.164062
 20
39.785156
 30
0.0
 11
18.164062
 21
39.082031
 31
0.0
  0
LINE
  5
109
100
AcDbEntity
  8
0
 62
7
100
AcDbLine
 10
18.164062
 20
39.082031
 30
0.0
 11
37.500000
 21
34.863281
 31
0.0
  0
LINE
  5
10a
100
AcDbEntity
  8
0
 62
7
100
AcDbLine
 10
37.500000
 20
34.863281
 30
0.0
 11
56.835938
 21
39.082031
 31
0.0
  0
LINE
  5
10b
100
AcDbEntity
  8
0
 62
7
100
AcDbLine
 10
56.835938
 20
39.082031
 30
0.0
 11
56.835938
 21
39.785156
 31
0.0
  0
LINE
  5
10c
100
AcDbEntity
  8
0
 62
7
100
AcDbLine
 10
56.835938
 20
39.785156
 30
0.0
 11
56.442490
 21
43.420487
 31
0.0
  0
LINE
  5
10d
100
AcDbEntity
  8
0
 62
7
100
AcDbLine
 10
56.442490
 20
43.420487
 30
0.0
 11
55.314331
 21
46.807251
 31
0.0
  0
LINE
  5
10e
100
AcDbEntity
  8
0
 62
7
100
AcDbLine
 10
55.314331
 20
46.807251
 30
0.0
 11
53.529739
 21
49.872665
 31
0.0
  0
LINE
  5
10f
100
AcDbEntity
  8
0
 62
7
100
AcDbLine
 10
53.529739
 20
49.872665
 30
0.0
 11
51.166992
 21
52.543945
 31
0.0
  0
LINE
  5
110
100
AcDbEntity
  8
0
 62
7
100
AcDbLine
 10
51.166992
 20
52.543945
 30
0.0
 11
48.304367
 21
54.748306
 31
0.0
  0
LINE
  5
111
100
AcDbEntity
  8
0
 62
7
100
AcDbLine
 10
48.304367
 20
54.748306
 30
0.0
 11
45.020141
 21
56.412964
 31
0.0
  0
LINE
  5
112
100
AcDbEntity
  8
0
 62
7
100
AcDbLine
 10
45.020141
 20
56.412964
 30
0.0
 11
41.392594
 21
57.465134
 31
0.0
  0
LINE
  5
113
100
AcDbEntity
  8
0
 62
7
100
AcDbLine
 10
41.392594
 20
57.465134
 30
0.0
 11
37.500000
 21
57.832031
 31
0.0
  0
LINE
  5
114
100
AcDbEntity
  8
0
 62
7
100
AcDbLine
 10
37.500000
 20
57.832031
 30
0.0
 11
37.500000
 21
57.832031
 31
0.0
  0
LINE
  5
115
100
AcDbEntity
  8
0
 62
7
100
AcDbLine
 10
4.160156
 20
39.082031
 30
0.0
 11
4.160156
 21
25.371094
 31
0.0
  0
LINE
  5
116
100
AcDbEntity
  8
0
 62
7
100
AcDbLine
 10
4.160156
 20
25.371094
 30
0.0
 11
5.535622
 21
25.167847
 31
0.0
  0
LINE
  5
117
100
AcDbEntity
  8
0
 62
7
100
AcDbLine
 10
5.535622
 20
25.167847
 30
0.0
 11
6.792297
 21
24.580079
 31
0.0
  0
LINE
  5
118
100
AcDbEntity
  8
0
 62
7
100
AcDbLine
 10
6.792297
 20
24.580079
 30
0.0
 11
7.910271
 21
23.640747
 31
0.0
  0
LINE
  5
119
100
AcDbEntity
  8
0
 62
7
100
AcDbLine
 10
7.910271
 20
23.640747
 30
0.0
 11
8.869629
 21
22.382813
 31
0.0
  0
LINE
  5
11a
100
AcDbEntity
  8
0
 62
7
100
AcDbLine
 10
8.869629
 20
22.382813
 30
0.0
 11
9.650459
 21
20.839234
 31
0.0
  0
LINE
  5
11b
100
AcDbEntity
  8
0
 62
7
100
AcDbLine
 10
9.650459
 20
20.839234
 30
0.0
 11
10.232849
 21
19.042969
 31
0.0
  0
LINE
  5
11c
100
AcDbEntity
  8
0
 62
7
100
AcDbLine
 10
10.232849
 20
19.042969
 30
0.0
 11
10.596886
 21
17.026978
 31
0.0
  0
LINE
  5
11d
100
AcDbEntity
  8
0
 62
7
100
AcDbLine
 10
10.596886
 20
17.026978
 30
0.0
 11
10.722656
 21
14.824219
 31
0.0
  0
LINE
  5
11e
100
AcDbEntity
  8
0
 62
7
100
AcDbLine
 10
10.722656
 20
14.824219
 30
0.0
 11
10.596886
 21
12.621460
 31
0.0
  0
LINE
  5
11f
100
AcDbEntity
  8
0
 62
7
100
AcDbLine
 10
10.596886
 20
12.621460
 30
0.0
 11
10.232849
 21
10.605469
 31
0.0
  0
LINE
  5
120
100
AcDbEntity
  8
0
 62
7
100
AcDbLine
 10
10.232849
 20
10.605469
 30
0.0
 11
9.650459
 21
8.809204
 31
0.0
  0
LINE
  5
121
100
AcDbEntity
  8
0
 62
7
100
AcDbLine
 10
9.650459
 20
8.809204
 30
0.0
 11
8.869629
 21
7.265625
 31
0.0
  0
LINE
  5
122
100
AcDbEntity
  8
0
 62
7
100
AcDbLine
 10
8.869629
 20
7.265625
 30
0.0
 11
7.910271
 21
6.007691
 31
0.0
  0
LINE
  5
123
100
AcDbEntity
  8
0
 62
7
100
AcDbLine
 10
7.910271
 20
6.007691
 30
0.0
 11
6.792297
 21
5.068360
 31
0.0
  0
LINE
  5
124
100
AcDbEntity
  8
0
 62
7
100
AcDbLine
 10
6.792297
 20
5.068360
 30
0.0
 11
5.535622
 21
4.480591
 31
0.0
  0
LINE
  5
125
100
AcDbEntity
  8
0
 62
7
100
AcDbLine
 10
5.535622
 20
4.480591
 30
0.0
 11
4.160156
 21
4.277344
 31
0.0
  0
LINE
  5
126
100
AcDbEntity
  8
0
 62
7
100
AcDbLine
 10
4.160156
 20
4.277344
 30
0.0
 11
4.160156
 21
-8.730469
 31
0.0
  0
LINE
  5
127
100
AcDbEntity
  8
0
 62
7
100
AcDbLine
 10
4.160156
 20
-8.730469
 30
0.0
 11
35.976562
 21
-15.703125
 31
0.0
  0
LINE
  5
128
100
AcDbEntity
  8
0
 62
7
100
AcDbLine
 10
35.976562
 20
-15.703125
 30
0.0
 11
35.976562
 21
32.109375
 31
0.0
  0
LINE
  5
129
100
AcDbEntity
  8
0
 62
7
100
AcDbLine
 10
35.976562
 20
32.109375
 30
0.0
 11
4.160156
 21
39.082031
 31
0.0
  0
LINE
  5
12a
100
AcDbEntity
  8
0
 62
7
100
AcDbLine
 10
70.839844
 20
39.082031
 30
0.0
 11
39.023438
 21
32.109375
 31
0.0
  0
LINE
  5
12b
100
AcDbEntity
  8
0
 62
7
100
AcDbLine
 10
39.023438
 20
32.109375
 30
0.0
 11
39.023438
 21
-15.644531
 31
0.0
  0
LINE
  5
12c
100
AcDbEntity
  8
0
 62
7
100
AcDbLine
 10
39.023438
 20
-15.644531
 30
0.0
 11
70.839844
 21
-8.671875
 31
0.0
  0
LINE
  5
12d
100
AcDbEntity
  8
0
 62
7
100
AcDbLine
 10
70.839844
 20
-8.671875
 30
0.0
 11
70.839844
 21
4.335938
 31
0.0
  0
LINE
  5
12e
100
AcDbEntity
  8
0
 62
7
100
AcDbLine
 10
70.839844
 20
4.335938
 30
0.0
 11
69.464378
 21
4.536667
 31
0.0
  0
LINE
  5
12f
100
AcDbEntity
  8
0
 62
7
100
AcDbLine
 10
69.464378
 20
4.536667
 30
0.0
 11
68.207703
 21
5.117797
 31
0.0
  0
LINE
  5
130
100
AcDbEntity
  8
0
 62
7
100
AcDbLine
 10
68.207703
 20
5.117797
 30
0.0
 11
67.089729
 21
6.047745
 31
0.0
  0
LINE
  5
131
100
AcDbEntity
  8
0
 62
7
100
AcDbLine
 10
67.089729
 20
6.047745
 30
0.0
 11
66.130371
 21
7.294922
 31
0.0
  0
LINE
  5
132
100
AcDbEntity
  8
0
 62
7
100
AcDbLine
 10
66.130371
 20
7.294922
 30
0.0
 11
65.349541
 21
8.827744
 31
0.0
  0
LINE
  5
133
100
AcDbEntity
  8
0
 62
7
100
AcDbLine
 10
65.349541
 20
8.827744
 30
0.0
 11
64.767151
 21
10.614624
 31
0.0
  0
LINE
  5
134
100
AcDbEntity
  8
0
 62
7
100
AcDbLine
 10
64.767151
 20
10.614624
 30
0.0
 11
64.403114
 21
12.623977
 31
0.0
  0
LINE
  5
135
100
AcDbEntity
  8
0
 62
7
100
AcDbLine
 10
64.403114
 20
12.623977
 30
0.0
 11
64.277344
 21
14.824219
 31
0.0
  0
LINE
  5
136
100
AcDbEntity
  8
0
 62
7
100
AcDbLine
 10
64.277344
 20
14.824219
 30
0.0
 11
64.403114
 21
17.026978
 31
0.0
  0
LINE
  5
137
100
AcDbEntity
  8
0
 62
7
100
AcDbLine
 10
64.403114
 20
17.026978
 30
0.0
 11
64.767151
 21
19.042969
 31
0.0
  0
LINE
  5
138
100
AcDbEntity
  8
0
 62
7
100
AcDbLine
 10
64.767151
 20
19.042969
 30
0.0
 11
65.349541
 21
20.839234
 31
0.0
  0
LINE
  5
139
100
AcDbEntity
  8
0
 62
7
100
AcDbLine
 10
65.349541
 20
20.839234
 30
0.0
 11
66.130371
 21
22.382812
 31
0.0
  0
LINE
  5
13a
100
AcDbEntity
  8
0
 62
7
100
AcDbLine
 10
66.130371
 20
22.382812
 30
0.0
 11
67.089729
 21
23.640747
 31
0.0
  0
LINE
  5
13b
100
AcDbEntity
  8
0
 62
7
100
AcDbLine
 10
67.089729
 20
23.640747
 30
0.0
 11
68.207703
 21
24.580078
 31
0.0
  0
LINE
  5
13c
100
AcDbEntity
  8
0
 62
7
100
AcDbLine
 10
68.207703
 20
24.580078
 30
0.0
 11
69.464378
 21
25.167847
 31
0.0
  0
LINE
  5
13d
100
AcDbEntity
  8
0
 62
7
100
AcDbLine
 10
69.464378
 20
25.167847
 30
0.0
 11
70.839844
 21
25.371094
 31
0.0
  0
LINE
  5
13e
100
AcDbEntity
  8
0
 62
7
100
AcDbLine
 10
70.839844
 20
25.371094
 30
0.0
 11
70.839844
 21
39.082031
 31
0.0
  0
LINE
  5
13f
100
AcDbEntity
  8
0
 62
7
100
AcDbLine
 10
4.160156
 20
22.382812
 30
0.0
 11
3.459605
 21
22.236234
 31
0.0
  0
LINE
  5
140
100
AcDbEntity
  8
0
 62
7
100
AcDbLine
 10
3.459605
 20
22.236234
 30
0.0
 11
2.792362
 21
21.807448
 31
0.0
  0
LINE
  5
141
100
AcDbEntity
  8
0
 62
7
100
AcDbLine
 10
2.792362
 20
21.807448
 30
0.0
 11
1.632802
 21
20.168952
 31
0.0
  0
LINE
  5
142
100
AcDbEntity
  8
0
 62
7
100
AcDbLine
 10
1.632802
 20
20.168952
 30
0.0
 11
0.858009
 21
17.716768
 31
0.0
  0
LINE
  5
143
100
AcDbEntity
  8
0
 62
7
100
AcDbLine
 10
0.858009
 20
17.716768
 30
0.0
 11
0.585938
 21
14.824219
 31
0.0
  0
LINE
  5
144
100
AcDbEntity
  8
0
 62
7
100
AcDbLine
 10
0.585938
 20
14.824219
 30
0.0
 11
0.858009
 21
11.931670
 31
0.0
  0
LINE
  5
145
100
AcDbEntity
  8
0
 62
7
100
AcDbLine
 10
0.858009
 20
11.931670
 30
0.0
 11
1.632802
 21
9.479485
 31
0.0
  0
LINE
  5
146
100
AcDbEntity
  8
0
 62
7
100
AcDbLine
 10
1.632802
 20
9.479485
 30
0.0
 11
2.792362
 21
7.840989
 31
0.0
  0
LINE
  5
147
100
AcDbEntity
  8
0
 62
7
100
AcDbLine
 10
2.792362
 20
7.840989
 30
0.0
 11
3.459605
 21
7.412203
 31
0.0
  0
LINE
  5
148
100
AcDbEntity
  8
0
 62
7
100
AcDbLine
 10
3.459605
 20
7.412203
 30
0.0
 11
4.160156
 21
7.265625
 31
0.0
  0
LINE
  5
149
100
AcDbEntity
  8
0
 62
7
100
AcDbLine
 10
4.160156
 20
7.265625
 30
0.0
 11
4.860708
 21
7.412203
 31
0.0
  0
LINE
  5
14a
100
AcDbEntity
  8
0
 62
7
100
AcDbLine
 10
4.860708
 20
7.412203
 30
0.0
 11
5.527951
 21
7.840989
 31
0.0
  0
LINE
  5
14b
100
AcDbEntity
  8
0
 62
7
100
AcDbLine
 10
5.527951
 20
7.840989
 30
0.0
 11
6.687511
 21
9.479485
 31
0.0
  0
LINE
  5
14c
100
AcDbEntity
  8
0
 62
7
100
AcDbLine
 10
6.687511
 20
9.479485
 30
0.0
 11
7.462304
 21
11.931670
 31
0.0
  0
LINE
  5
14d
100
AcDbEntity
  8
0
 62
7
100
AcDbLine
 10
7.462304
 20
11.931670
 30
0.0
 11
7.734375
 21
14.824219
 31
0.0
  0
LINE
  5
14e
100
AcDbEntity
  8
0
 62
7
100
AcDbLine
 10
7.734375
 20
14.824219
 30
0.0
 11
7.462304
 21
17.716768
 31
0.0
  0
LINE
  5
14f
100
AcDbEntity
  8
0
 62
7
100
AcDbLine
 10
7.462304
 20
17.716768
 30
0.0
 11
6.687511
 21
20.168952
 31
0.0
  0
LINE
  5
150
100
AcDbEntity
  8
0
 62
7
100
AcDbLine
 10
6.687511
 20
20.168952
 30
0.0
 11
5.527951
 21
21.807448
 31
0.0
  0
LINE
  5
151
100
AcDbEntity
  8
0
 62
7
100
AcDbLine
 10
5.527951
 20
21.807448
 30
0.0
 11
4.860708
 21
22.236234
 31
0.0
  0
LINE
  5
152
100
AcDbEntity
  8
0
 62
7
100
AcDbLine
 10
4.860708
 20
22.236234
 30
0.0
 11
4.160156
 21
22.382812
 31
0.0
  0
LINE
  5
153
100
AcDbEntity
  8
0
 62
7
100
AcDbLine
 10
4.160156
 20
22.382812
 30
0.0
 11
4.160156
 21
22.382812
 31
0.0
  0
LINE
  5
154
100
AcDbEntity
  8
0
 62
7
100
AcDbLine
 10
70.839844
 20
22.382812
 30
0.0
 11
70.139292
 21
22.236234
 31
0.0
  0
LINE
  5
155
100
AcDbEntity
  8
0
 62
7
100
AcDbLine
 10
70.139292
 20
22.236234
 30
0.0
 11
69.472049
 21
21.807448
 31
0.0
  0
LINE
  5
156
100
AcDbEntity
  8
0
 62
7
100
AcDbLine
 10
69.472049
 20
21.807448
 30
0.0
 11
68.312489
 21
20.168952
 31
0.0
  0
LINE
  5
157
100
AcDbEntity
  8
0
 62
7
100
AcDbLine
 10
68.312489
 20
20.168952
 30
0.0
 11
67.537697
 21
17.716768
 31
0.0
  0
LINE
  5
158
100
AcDbEntity
  8
0
 62
7
100
AcDbLine
 10
67.537697
 20
17.716768
 30
0.0
 11
67.265625
 21
14.824219
 31
0.0
  0
LINE
  5
159
100
AcDbEntity
  8
0
 62
7
100
AcDbLine
 10
67.265625
 20
14.824219
 30
0.0
 11
67.537697
 21
11.931670
 31
0.0
  0
LINE
  5
15a
100
AcDbEntity
  8
0
 62
7
100
AcDbLine
 10
67.537697
 20
11.931670
 30
0.0
 11
68.312489
 21
9.479485
 31
0.0
  0
LINE
  5
15b
100
AcDbEntity
  8
0
 62
7
100
AcDbLine
 10
68.312489
 20
9.479485
 30
0.0
 11
69.472049
 21
7.840989
 31
0.0
  0
LINE
  5
15c
100
AcDbEntity
  8
0
 62
7
100
AcDbLine
 10
69.472049
 20
7.840989
 30
0.0
 11
70.139292
 21
7.412203
 31
0.0
  0
LINE
  5
15d
100
AcDbEntity
  8
0
 62
7
100
AcDbLine
 10
70.139292
 20
7.412203
 30
0.0
 11
70.839844
 21
7.265625
 31
0.0
  0
LINE
  5
15e
100
AcDbEntity
  8
0
 62
7
100
AcDbLine
 10
70.839844
 20
7.265625
 30
0.0
 11
71.540395
 21
7.412203
 31
0.0
  0
LINE
  5
15f
100
AcDbEntity
  8
0
 62
7
100
AcDbLine
 10
71.540395
 20
7.412203
 30
0.0
 11
72.207638
 21
7.840989
 31
0.0
  0
LINE
  5
160
100
AcDbEntity
  8
0
 62
7
100
AcDbLine
 10
72.207638
 20
7.840989
 30
0.0
 11
73.367198
 21
9.479485
 31
0.0
  0
LINE
  5
161
100
AcDbEntity
  8
0
 62
7
100
AcDbLine
 10
73.367198
 20
9.479485
 30
0.0
 11
74.141991
 21
11.931670
 31
0.0
  0
LINE
  5
162
100
AcDbEntity
  8
0
 62
7
100
AcDbLine
 10
74.141991
 20
11.931670
 30
0.0
 11
74.414062
 21
14.824219
 31
0.0
  0
LINE
  5
163
100
AcDbEntity
  8
0
 62
7
100
AcDbLine
 10
74.414062
 20
14.824219
 30
0.0
 11
74.141991
 21
17.716768
 31
0.0
  0
LINE
  5
164
100
AcDbEntity
  8
0
 62
7
100
AcDbLine
 10
74.141991
 20
17.716768
 30
0.0
 11
73.367198
 21
20.168952
 31
0.0
  0
LINE
  5
165
100
AcDbEntity
  8
0
 62
7
100
AcDbLine
 10
73.367198
 20
20.168952
 30
0.0
 11
72.207638
 21
21.807449
 31
0.0
  0
LINE
  5
166
100
AcDbEntity
  8
0
 62
7
100
AcDbLine
 10
72.207638
 20
21.807449
 30
0.0
 11
71.540395
 21
22.236234
 31
0.0
  0
LINE
  5
167
100
AcDbEntity
  8
0
 62
7
100
AcDbLine
 10
71.540395
 20
22.236234
 30
0.0
 11
70.839844
 21
22.382813
 31
0.0
  0
LINE
  5
168
100
AcDbEntity
  8
0
 62
7
100
AcDbLine
 10
70.839844
 20
22.382813
 30
0.0
 11
70.839844
 21
22.382813
 31
0.0
  0
ENDSEC
  0
SECTION
  2
OBJECTS
  0
DICTIONARY
  5
C
330
0
100
AcDbDictionary
  3
ACAD_GROUP
350
D
  3
ACAD_MLINESTYLE
350
17
  0
DICTIONARY
  5
D
330
C
100
AcDbDictionary
  0
DICTIONARY
  5
1A
330
C
100
AcDbDictionary
  0
DICTIONARY
  5
17
330
C
100
AcDbDictionary
  3
STANDARD
350
18
  0
DICTIONARY
  5
19
330
C
100
AcDbDictionary
  0
ENDSEC
  0
EOF
