  0
SECTION
  2
HEADER
  9
$ACADVER
  1
AC1014
  9
$HANDSEED
  5
FFFF
  9
$MEASUREMENT
 70
     1
  0
ENDSEC
  0
SECTION
  2
TABLES
  0
TABLE
  2
VPORT
  5
8
330
0
100
AcDbSymbolTable
 70
     4
  0
VPORT
  5
2E
330
8
100
AcDbSymbolTableRecord
100
AcDbViewportTableRecord
  2
*ACTIVE
 70
     0
 10
0.0
 20
0.0
 11
1.0
 21
1.0
 12
210.0
 22
148.5
 13
0.0
 23
0.0
 14
10.0
 24
10.0
 15
10.0
 25
10.0
 16
0.0
 26
0.0
 36
1.0
 17
0.0
 27
0.0
 37
0.0
 40
341.0
 41
1.24
 42
50.0
 43
0.0
 44
0.0
 50
0.0
 51
0.0
 71
     0
 72
   100
 73
     1
 74
     3
 75
     0
 76
     0
 77
     0
 78
     0
  0
ENDTAB
  0
TABLE
  2
LTYPE
  5
5
330
0
100
AcDbSymbolTable
 70
     1
  0
LTYPE
  5
14
330
5
100
AcDbSymbolTableRecord
100
AcDbLinetypeTableRecord
  2
BYBLOCK
 70
     0
  3

 72
    65
 73
     0
 40
0.0
  0
LTYPE
  5
15
330
5
100
AcDbSymbolTableRecord
100
AcDbLinetypeTableRecord
  2
BYLAYER
 70
     0
  3

 72
    65
 73
     0
 40
0.0
  0
LTYPE
  5
16
330
5
100
AcDbSymbolTableRecord
100
AcDbLinetypeTableRecord
  2
CONTINUOUS
 70
     0
  3
Solid line
 72
    65
 73
     0
 40
0.0
  0
ENDTAB
  0
TABLE
  2
LAYER
  5
2
100
AcDbSymbolTable
 70
2
  0
LAYER
  5
50
100
AcDbSymbolTableRecord
100
AcDbLayerTableRecord
  2
0
 70
0
  6
CONTINUOUS
  0
LAYER
  5
51
100
AcDbSymbolTableRecord
100
AcDbLayerTableRecord
  2
Capa_1
 70
0
  6
CONTINUOUS
  0
ENDTAB
  0
TABLE
  2
STYLE
  5
3
330
0
100
AcDbSymbolTable
 70
     1
  0
STYLE
  5
11
330
3
100
AcDbSymbolTableRecord
100
AcDbTextStyleTableRecord
  2
STANDARD
 70
     0
 40
0.0
 41
1.0
 50
0.0
 71
     0
 42
2.5
  3
txt
  4

  0
ENDTAB
  0
TABLE
  2
VIEW
  5
6
330
0
100
AcDbSymbolTable
 70
     0
  0
ENDTAB
  0
TABLE
  2
UCS
  5
7
330
0
100
AcDbSymbolTable
 70
     0
  0
ENDTAB
  0
TABLE
  2
APPID
  5
9
330
0
100
AcDbSymbolTable
 70
     2
  0
APPID
  5
12
330
9
100
AcDbSymbolTableRecord
100
AcDbRegAppTableRecord
  2
ACAD
 70
     0
  0
ENDTAB
  0
TABLE
  2
DIMSTYLE
  5
A
330
0
100
AcDbSymbolTable
 70
     1
  0
DIMSTYLE
105
27
330
A
100
AcDbSymbolTableRecord
100
AcDbDimStyleTableRecord
  2
ISO-25
 70
     0
  3

  4

  5

  6

  7

 40
1.0
 41
2.5
 42
0.625
 43
3.75
 44
1.25
 45
0.0
 46
0.0
 47
0.0
 48
0.0
140
2.5
141
2.5
142
0.0
143
0.03937007874016
144
1.0
145
0.0
146
1.0
147
0.625
 71
     0
 72
     0
 73
     0
 74
     0
 75
     0
 76
     0
 77
     1
 78
     8
170
     0
171
     3
172
     1
173
     0
174
     0
175
     0
176
     0
177
     0
178
     0
270
     2
271
     2
272
     2
273
     2
274
     3
340
11
275
     0
280
     0
281
     0
282
     0
283
     0
284
     8
285
     0
286
     0
287
     3
288
     0
  0
ENDTAB
  0
TABLE
  2
BLOCK_RECORD
  5
1
330
0
100
AcDbSymbolTable
 70
     1
  0
BLOCK_RECORD
  5
1F
330
1
100
AcDbSymbolTableRecord
100
AcDbBlockTableRecord
  2
*MODEL_SPACE
  0
BLOCK_RECORD
  5
1B
330
1
100
AcDbSymbolTableRecord
100
AcDbBlockTableRecord
  2
*PAPER_SPACE
  0
ENDTAB
  0
ENDSEC
  0
SECTION
  2
BLOCKS
  0
BLOCK
  5
20
330
1F
100
AcDbEntity
  8
0
100
AcDbBlockBegin
  2
*MODEL_SPACE
 70
     0
 10
0.0
 20
0.0
 30
0.0
  3
*MODEL_SPACE
  1

  0
ENDBLK
  5
21
330
1F
100
AcDbEntity
  8
0
100
AcDbBlockEnd
  0
BLOCK
  5
1C
330
1B
100
AcDbEntity
 67
     1
  8
0
100
AcDbBlockBegin
  2
*PAPER_SPACE
  1

  0
ENDBLK
  5
1D
330
1B
100
AcDbEntity
 67
     1
  8
0
100
AcDbBlockEnd
  0
ENDSEC
  0
SECTION
  2
ENTITIES
  0
LINE
  5
100
100
AcDbEntity
  8
Capa_1
 62
1
100
AcDbLine
 10
72.561616
 20
36.500580
 30
0.0
 11
72.321056
 21
32.048060
 31
0.0
  0
LINE
  5
101
100
AcDbEntity
  8
Capa_1
 62
1
100
AcDbLine
 10
72.321056
 20
32.048060
 30
0.0
 11
70.271200
 21
23.814508
 31
0.0
  0
LINE
  5
102
100
AcDbEntity
  8
Capa_1
 62
1
100
AcDbLine
 10
70.271200
 20
23.814508
 30
0.0
 11
67.840104
 21
18.675356
 31
0.0
  0
LINE
  5
103
100
AcDbEntity
  8
Capa_1
 62
1
100
AcDbLine
 10
67.840104
 20
18.675356
 30
0.0
 11
65.066808
 21
14.499444
 31
0.0
  0
LINE
  5
104
100
AcDbEntity
  8
Capa_1
 62
1
100
AcDbLine
 10
65.066808
 20
14.499444
 30
0.0
 11
61.647040
 21
10.625556
 31
0.0
  0
LINE
  5
105
100
AcDbEntity
  8
Capa_1
 62
1
100
AcDbLine
 10
61.647040
 20
10.625556
 30
0.0
 11
56.454496
 21
6.390156
 31
0.0
  0
LINE
  5
106
100
AcDbEntity
  8
Capa_1
 62
1
100
AcDbLine
 10
56.454496
 20
6.390156
 30
0.0
 11
50.493504
 21
3.209348
 31
0.0
  0
LINE
  5
107
100
AcDbEntity
  8
Capa_1
 62
1
100
AcDbLine
 10
50.493504
 20
3.209348
 30
0.0
 11
44.046320
 21
1.149692
 31
0.0
  0
LINE
  5
108
100
AcDbEntity
  8
Capa_1
 62
1
100
AcDbLine
 10
44.046320
 20
1.149692
 30
0.0
 11
38.024856
 21
0.400756
 31
0.0
  0
LINE
  5
109
100
AcDbEntity
  8
Capa_1
 62
1
100
AcDbLine
 10
38.024856
 20
0.400756
 30
0.0
 11
32.943016
 21
0.554244
 31
0.0
  0
LINE
  5
10a
100
AcDbEntity
  8
Capa_1
 62
1
100
AcDbLine
 10
32.943016
 20
0.554244
 30
0.0
 11
25.318104
 21
2.129340
 31
0.0
  0
LINE
  5
10b
100
AcDbEntity
  8
Capa_1
 62
1
100
AcDbLine
 10
25.318104
 20
2.129340
 30
0.0
 11
21.230320
 21
3.708012
 31
0.0
  0
LINE
  5
10c
100
AcDbEntity
  8
Capa_1
 62
1
100
AcDbLine
 10
21.230320
 20
3.708012
 30
0.0
 11
15.264776
 21
7.176828
 31
0.0
  0
LINE
  5
10d
100
AcDbEntity
  8
Capa_1
 62
1
100
AcDbLine
 10
15.264776
 20
7.176828
 30
0.0
 11
11.501176
 21
10.346572
 31
0.0
  0
LINE
  5
10e
100
AcDbEntity
  8
Capa_1
 62
1
100
AcDbLine
 10
11.501176
 20
10.346572
 30
0.0
 11
8.801448
 21
13.170596
 31
0.0
  0
LINE
  5
10f
100
AcDbEntity
  8
Capa_1
 62
1
100
AcDbLine
 10
8.801448
 20
13.170596
 30
0.0
 11
5.221768
 21
18.252292
 31
0.0
  0
LINE
  5
110
100
AcDbEntity
  8
Capa_1
 62
1
100
AcDbLine
 10
5.221768
 20
18.252292
 30
0.0
 11
2.968432
 21
22.879468
 31
0.0
  0
LINE
  5
111
100
AcDbEntity
  8
Capa_1
 62
1
100
AcDbLine
 10
2.968432
 20
22.879468
 30
0.0
 11
1.339648
 21
27.959836
 31
0.0
  0
LINE
  5
112
100
AcDbEntity
  8
Capa_1
 62
1
100
AcDbLine
 10
1.339648
 20
27.959836
 30
0.0
 11
0.400120
 21
33.852708
 31
0.0
  0
LINE
  5
113
100
AcDbEntity
  8
Capa_1
 62
1
100
AcDbLine
 10
0.400120
 20
33.852708
 30
0.0
 11
0.422680
 21
39.766156
 31
0.0
  0
LINE
  5
114
100
AcDbEntity
  8
Capa_1
 62
1
100
AcDbLine
 10
0.422680
 20
39.766156
 30
0.0
 11
2.340632
 21
48.507980
 31
0.0
  0
LINE
  5
115
100
AcDbEntity
  8
Capa_1
 62
1
100
AcDbLine
 10
2.340632
 20
48.507980
 30
0.0
 11
4.621888
 21
53.712780
 31
0.0
  0
LINE
  5
116
100
AcDbEntity
  8
Capa_1
 62
1
100
AcDbLine
 10
4.621888
 20
53.712780
 30
0.0
 11
8.566136
 21
59.510444
 31
0.0
  0
LINE
  5
117
100
AcDbEntity
  8
Capa_1
 62
1
100
AcDbLine
 10
8.566136
 20
59.510444
 30
0.0
 11
11.611552
 21
62.738924
 31
0.0
  0
LINE
  5
118
100
AcDbEntity
  8
Capa_1
 62
1
100
AcDbLine
 10
11.611552
 20
62.738924
 30
0.0
 11
15.591088
 21
65.992724
 31
0.0
  0
LINE
  5
119
100
AcDbEntity
  8
Capa_1
 62
1
100
AcDbLine
 10
15.591088
 20
65.992724
 30
0.0
 11
19.443720
 21
68.384052
 31
0.0
  0
LINE
  5
11a
100
AcDbEntity
  8
Capa_1
 62
1
100
AcDbLine
 10
19.443720
 20
68.384052
 30
0.0
 11
23.877144
 21
70.403300
 31
0.0
  0
LINE
  5
11b
100
AcDbEntity
  8
Capa_1
 62
1
100
AcDbLine
 10
23.877144
 20
70.403300
 30
0.0
 11
28.718632
 21
71.837444
 31
0.0
  0
LINE
  5
11c
100
AcDbEntity
  8
Capa_1
 62
1
100
AcDbLine
 10
28.718632
 20
71.837444
 30
0.0
 11
34.569576
 21
72.584764
 31
0.0
  0
LINE
  5
11d
100
AcDbEntity
  8
Capa_1
 62
1
100
AcDbLine
 10
34.569576
 20
72.584764
 30
0.0
 11
38.868496
 21
72.581564
 31
0.0
  0
LINE
  5
11e
100
AcDbEntity
  8
Capa_1
 62
1
100
AcDbLine
 10
38.868496
 20
72.581564
 30
0.0
 11
43.597168
 21
71.940412
 31
0.0
  0
LINE
  5
11f
100
AcDbEntity
  8
Capa_1
 62
1
100
AcDbLine
 10
43.597168
 20
71.940412
 30
0.0
 11
49.641632
 21
70.125324
 31
0.0
  0
LINE
  5
120
100
AcDbEntity
  8
Capa_1
 62
1
100
AcDbLine
 10
49.641632
 20
70.125324
 30
0.0
 11
54.035768
 21
68.031788
 31
0.0
  0
LINE
  5
121
100
AcDbEntity
  8
Capa_1
 62
1
100
AcDbLine
 10
54.035768
 20
68.031788
 30
0.0
 11
58.081088
 21
65.410492
 31
0.0
  0
LINE
  5
122
100
AcDbEntity
  8
Capa_1
 62
1
100
AcDbLine
 10
58.081088
 20
65.410492
 30
0.0
 11
61.770056
 21
62.266924
 31
0.0
  0
LINE
  5
123
100
AcDbEntity
  8
Capa_1
 62
1
100
AcDbLine
 10
61.770056
 20
62.266924
 30
0.0
 11
65.576584
 21
57.903588
 31
0.0
  0
LINE
  5
124
100
AcDbEntity
  8
Capa_1
 62
1
100
AcDbLine
 10
65.576584
 20
57.903588
 30
0.0
 11
68.608752
 21
52.949620
 31
0.0
  0
LINE
  5
125
100
AcDbEntity
  8
Capa_1
 62
1
100
AcDbLine
 10
68.608752
 20
52.949620
 30
0.0
 11
70.153576
 21
49.499580
 31
0.0
  0
LINE
  5
126
100
AcDbEntity
  8
Capa_1
 62
1
100
AcDbLine
 10
70.153576
 20
49.499580
 30
0.0
 11
71.716112
 21
44.302132
 31
0.0
  0
LINE
  5
127
100
AcDbEntity
  8
Capa_1
 62
1
100
AcDbLine
 10
71.716112
 20
44.302132
 30
0.0
 11
72.285912
 21
40.989404
 31
0.0
  0
LINE
  5
128
100
AcDbEntity
  8
Capa_1
 62
1
100
AcDbLine
 10
72.285912
 20
40.989404
 30
0.0
 11
72.561616
 21
36.500580
 31
0.0
  0
LINE
  5
129
100
AcDbEntity
  8
Capa_1
 62
1
100
AcDbLine
 10
48.589616
 20
44.822180
 30
0.0
 11
50.188512
 21
41.110596
 31
0.0
  0
LINE
  5
12a
100
AcDbEntity
  8
Capa_1
 62
1
100
AcDbLine
 10
50.188512
 20
41.110596
 30
0.0
 11
50.461496
 21
38.484812
 31
0.0
  0
LINE
  5
12b
100
AcDbEntity
  8
Capa_1
 62
1
100
AcDbLine
 10
50.461496
 20
38.484812
 30
0.0
 11
50.439256
 21
32.264940
 31
0.0
  0
LINE
  5
12c
100
AcDbEntity
  8
Capa_1
 62
1
100
AcDbLine
 10
50.439256
 20
32.264940
 30
0.0
 11
50.439256
 21
26.217636
 31
0.0
  0
LINE
  5
12d
100
AcDbEntity
  8
Capa_1
 62
1
100
AcDbLine
 10
50.439256
 20
26.217636
 30
0.0
 11
50.439256
 21
22.404076
 31
0.0
  0
LINE
  5
12e
100
AcDbEntity
  8
Capa_1
 62
1
100
AcDbLine
 10
50.439256
 20
22.404076
 30
0.0
 11
50.439256
 21
16.581372
 31
0.0
  0
LINE
  5
12f
100
AcDbEntity
  8
Capa_1
 62
1
100
AcDbLine
 10
50.439256
 20
16.581372
 30
0.0
 11
45.245656
 21
16.581372
 31
0.0
  0
LINE
  5
130
100
AcDbEntity
  8
Capa_1
 62
1
100
AcDbLine
 10
45.245656
 20
16.581372
 30
0.0
 11
45.165816
 21
40.407476
 31
0.0
  0
LINE
  5
131
100
AcDbEntity
  8
Capa_1
 62
1
100
AcDbLine
 10
45.165816
 20
40.407476
 30
0.0
 11
42.329504
 21
38.557764
 31
0.0
  0
LINE
  5
132
100
AcDbEntity
  8
Capa_1
 62
1
100
AcDbLine
 10
42.329504
 20
38.557764
 30
0.0
 11
19.800816
 21
16.033372
 31
0.0
  0
LINE
  5
133
100
AcDbEntity
  8
Capa_1
 62
1
100
AcDbLine
 10
19.800816
 20
16.033372
 30
0.0
 11
25.092840
 21
12.646884
 31
0.0
  0
LINE
  5
134
100
AcDbEntity
  8
Capa_1
 62
1
100
AcDbLine
 10
25.092840
 20
12.646884
 30
0.0
 11
29.852064
 21
10.958812
 31
0.0
  0
LINE
  5
135
100
AcDbEntity
  8
Capa_1
 62
1
100
AcDbLine
 10
29.852064
 20
10.958812
 30
0.0
 11
38.004392
 21
10.204276
 31
0.0
  0
LINE
  5
136
100
AcDbEntity
  8
Capa_1
 62
1
100
AcDbLine
 10
38.004392
 20
10.204276
 30
0.0
 11
44.104224
 21
11.259820
 31
0.0
  0
LINE
  5
137
100
AcDbEntity
  8
Capa_1
 62
1
100
AcDbLine
 10
44.104224
 20
11.259820
 30
0.0
 11
47.252280
 21
12.413604
 31
0.0
  0
LINE
  5
138
100
AcDbEntity
  8
Capa_1
 62
1
100
AcDbLine
 10
47.252280
 20
12.413604
 30
0.0
 11
53.132000
 21
16.084940
 31
0.0
  0
LINE
  5
139
100
AcDbEntity
  8
Capa_1
 62
1
100
AcDbLine
 10
53.132000
 20
16.084940
 30
0.0
 11
56.016656
 21
18.783804
 31
0.0
  0
LINE
  5
13a
100
AcDbEntity
  8
Capa_1
 62
1
100
AcDbLine
 10
56.016656
 20
18.783804
 30
0.0
 11
59.515464
 21
23.731828
 31
0.0
  0
LINE
  5
13b
100
AcDbEntity
  8
Capa_1
 62
1
100
AcDbLine
 10
59.515464
 20
23.731828
 30
0.0
 11
61.849048
 21
29.577540
 31
0.0
  0
LINE
  5
13c
100
AcDbEntity
  8
Capa_1
 62
1
100
AcDbLine
 10
61.849048
 20
29.577540
 30
0.0
 11
62.772192
 21
35.531620
 31
0.0
  0
LINE
  5
13d
100
AcDbEntity
  8
Capa_1
 62
1
100
AcDbLine
 10
62.772192
 20
35.531620
 30
0.0
 11
62.337672
 21
41.586484
 31
0.0
  0
LINE
  5
13e
100
AcDbEntity
  8
Capa_1
 62
1
100
AcDbLine
 10
62.337672
 20
41.586484
 30
0.0
 11
60.259888
 21
47.805516
 31
0.0
  0
LINE
  5
13f
100
AcDbEntity
  8
Capa_1
 62
1
100
AcDbLine
 10
60.259888
 20
47.805516
 30
0.0
 11
55.742896
 21
51.974084
 31
0.0
  0
LINE
  5
140
100
AcDbEntity
  8
Capa_1
 62
1
100
AcDbLine
 10
55.742896
 20
51.974084
 30
0.0
 11
48.589616
 21
44.822180
 31
0.0
  0
LINE
  5
141
100
AcDbEntity
  8
Capa_1
 62
1
100
AcDbLine
 10
39.614416
 20
43.527780
 30
0.0
 11
31.967216
 21
43.527780
 31
0.0
  0
LINE
  5
142
100
AcDbEntity
  8
Capa_1
 62
1
100
AcDbLine
 10
31.967216
 20
43.527780
 30
0.0
 11
32.069592
 21
39.638756
 31
0.0
  0
LINE
  5
143
100
AcDbEntity
  8
Capa_1
 62
1
100
AcDbLine
 10
32.069592
 20
39.638756
 30
0.0
 11
30.542880
 21
37.801932
 31
0.0
  0
LINE
  5
144
100
AcDbEntity
  8
Capa_1
 62
1
100
AcDbLine
 10
30.542880
 20
37.801932
 30
0.0
 11
17.844016
 21
45.136580
 31
0.0
  0
LINE
  5
145
100
AcDbEntity
  8
Capa_1
 62
1
100
AcDbLine
 10
17.844016
 20
45.136580
 30
0.0
 11
20.321800
 21
48.542244
 31
0.0
  0
LINE
  5
146
100
AcDbEntity
  8
Capa_1
 62
1
100
AcDbLine
 10
20.321800
 20
48.542244
 30
0.0
 11
31.604816
 21
55.059780
 31
0.0
  0
LINE
  5
147
100
AcDbEntity
  8
Capa_1
 62
1
100
AcDbLine
 10
31.604816
 20
55.059780
 30
0.0
 11
31.787336
 21
51.242732
 31
0.0
  0
LINE
  5
148
100
AcDbEntity
  8
Capa_1
 62
1
100
AcDbLine
 10
31.787336
 20
51.242732
 30
0.0
 11
33.193552
 21
48.718980
 31
0.0
  0
LINE
  5
149
100
AcDbEntity
  8
Capa_1
 62
1
100
AcDbLine
 10
33.193552
 20
48.718980
 30
0.0
 11
42.925912
 21
48.620188
 31
0.0
  0
LINE
  5
14a
100
AcDbEntity
  8
Capa_1
 62
1
100
AcDbLine
 10
42.925912
 20
48.620188
 30
0.0
 11
46.588800
 21
50.498204
 31
0.0
  0
LINE
  5
14b
100
AcDbEntity
  8
Capa_1
 62
1
100
AcDbLine
 10
46.588800
 20
50.498204
 30
0.0
 11
53.056816
 21
56.968580
 31
0.0
  0
LINE
  5
14c
100
AcDbEntity
  8
Capa_1
 62
1
100
AcDbLine
 10
53.056816
 20
56.968580
 30
0.0
 11
48.882912
 21
59.793548
 31
0.0
  0
LINE
  5
14d
100
AcDbEntity
  8
Capa_1
 62
1
100
AcDbLine
 10
48.882912
 20
59.793548
 30
0.0
 11
42.939952
 21
62.058420
 31
0.0
  0
LINE
  5
14e
100
AcDbEntity
  8
Capa_1
 62
1
100
AcDbLine
 10
42.939952
 20
62.058420
 30
0.0
 11
37.189952
 21
62.831732
 31
0.0
  0
LINE
  5
14f
100
AcDbEntity
  8
Capa_1
 62
1
100
AcDbLine
 10
37.189952
 20
62.831732
 30
0.0
 11
31.128328
 21
62.324252
 31
0.0
  0
LINE
  5
150
100
AcDbEntity
  8
Capa_1
 62
1
100
AcDbLine
 10
31.128328
 20
62.324252
 30
0.0
 11
25.839296
 21
60.689428
 31
0.0
  0
LINE
  5
151
100
AcDbEntity
  8
Capa_1
 62
1
100
AcDbLine
 10
25.839296
 20
60.689428
 30
0.0
 11
19.725624
 21
56.916484
 31
0.0
  0
LINE
  5
152
100
AcDbEntity
  8
Capa_1
 62
1
100
AcDbLine
 10
19.725624
 20
56.916484
 30
0.0
 11
15.257216
 21
52.282548
 31
0.0
  0
LINE
  5
153
100
AcDbEntity
  8
Capa_1
 62
1
100
AcDbLine
 10
15.257216
 20
52.282548
 30
0.0
 11
12.380224
 21
47.307884
 31
0.0
  0
LINE
  5
154
100
AcDbEntity
  8
Capa_1
 62
1
100
AcDbLine
 10
12.380224
 20
47.307884
 30
0.0
 11
10.479496
 21
41.045948
 31
0.0
  0
LINE
  5
155
100
AcDbEntity
  8
Capa_1
 62
1
100
AcDbLine
 10
10.479496
 20
41.045948
 30
0.0
 11
10.140232
 21
34.275948
 31
0.0
  0
LINE
  5
156
100
AcDbEntity
  8
Capa_1
 62
1
100
AcDbLine
 10
10.140232
 20
34.275948
 30
0.0
 11
10.806176
 21
30.114852
 31
0.0
  0
LINE
  5
157
100
AcDbEntity
  8
Capa_1
 62
1
100
AcDbLine
 10
10.806176
 20
30.114852
 30
0.0
 11
12.598760
 21
25.196444
 31
0.0
  0
LINE
  5
158
100
AcDbEntity
  8
Capa_1
 62
1
100
AcDbLine
 10
12.598760
 20
25.196444
 30
0.0
 11
17.114616
 21
21.027980
 31
0.0
  0
LINE
  5
159
100
AcDbEntity
  8
Capa_1
 62
1
100
AcDbLine
 10
17.114616
 20
21.027980
 30
0.0
 11
20.622976
 21
24.536340
 31
0.0
  0
LINE
  5
15a
100
AcDbEntity
  8
Capa_1
 62
1
100
AcDbLine
 10
20.622976
 20
24.536340
 30
0.0
 11
23.165352
 21
27.078716
 31
0.0
  0
LINE
  5
15b
100
AcDbEntity
  8
Capa_1
 62
1
100
AcDbLine
 10
23.165352
 20
27.078716
 30
0.0
 11
28.461960
 21
32.375324
 31
0.0
  0
LINE
  5
15c
100
AcDbEntity
  8
Capa_1
 62
1
100
AcDbLine
 10
28.461960
 20
32.375324
 30
0.0
 11
37.148400
 21
41.061764
 31
0.0
  0
LINE
  5
15d
100
AcDbEntity
  8
Capa_1
 62
1
100
AcDbLine
 10
37.148400
 20
41.061764
 30
0.0
 11
39.614416
 21
43.527780
 31
0.0
  0
ENDSEC
  0
SECTION
  2
OBJECTS
  0
DICTIONARY
  5
C
330
0
100
AcDbDictionary
  3
ACAD_GROUP
350
D
  3
ACAD_MLINESTYLE
350
17
  0
DICTIONARY
  5
D
330
C
100
AcDbDictionary
  0
DICTIONARY
  5
1A
330
C
100
AcDbDictionary
  0
DICTIONARY
  5
17
330
C
100
AcDbDictionary
  3
STANDARD
350
18
  0
DICTIONARY
  5
19
330
C
100
AcDbDictionary
  0
ENDSEC
  0
EOF
