  0
SECTION
  2
HEADER
  9
$ACADVER
  1
AC1014
  9
$HANDSEED
  5
FFFF
  9
$MEASUREMENT
 70
     1
  0
ENDSEC
  0
SECTION
  2
TABLES
  0
TABLE
  2
VPORT
  5
8
330
0
100
AcDbSymbolTable
 70
     4
  0
VPORT
  5
2E
330
8
100
AcDbSymbolTableRecord
100
AcDbViewportTableRecord
  2
*ACTIVE
 70
     0
 10
0.0
 20
0.0
 11
1.0
 21
1.0
 12
210.0
 22
148.5
 13
0.0
 23
0.0
 14
10.0
 24
10.0
 15
10.0
 25
10.0
 16
0.0
 26
0.0
 36
1.0
 17
0.0
 27
0.0
 37
0.0
 40
341.0
 41
1.24
 42
50.0
 43
0.0
 44
0.0
 50
0.0
 51
0.0
 71
     0
 72
   100
 73
     1
 74
     3
 75
     0
 76
     0
 77
     0
 78
     0
  0
ENDTAB
  0
TABLE
  2
LTYPE
  5
5
330
0
100
AcDbSymbolTable
 70
     1
  0
LTYPE
  5
14
330
5
100
AcDbSymbolTableRecord
100
AcDbLinetypeTableRecord
  2
BYBLOCK
 70
     0
  3

 72
    65
 73
     0
 40
0.0
  0
LTYPE
  5
15
330
5
100
AcDbSymbolTableRecord
100
AcDbLinetypeTableRecord
  2
BYLAYER
 70
     0
  3

 72
    65
 73
     0
 40
0.0
  0
LTYPE
  5
16
330
5
100
AcDbSymbolTableRecord
100
AcDbLinetypeTableRecord
  2
CONTINUOUS
 70
     0
  3
Solid line
 72
    65
 73
     0
 40
0.0
  0
ENDTAB
  0
TABLE
  2
LAYER
  5
2
100
AcDbSymbolTable
 70
1
  0
LAYER
  5
50
100
AcDbSymbolTableRecord
100
AcDbLayerTableRecord
  2
0
 70
0
  6
CONTINUOUS
  0
ENDTAB
  0
TABLE
  2
STYLE
  5
3
330
0
100
AcDbSymbolTable
 70
     1
  0
STYLE
  5
11
330
3
100
AcDbSymbolTableRecord
100
AcDbTextStyleTableRecord
  2
STANDARD
 70
     0
 40
0.0
 41
1.0
 50
0.0
 71
     0
 42
2.5
  3
txt
  4

  0
ENDTAB
  0
TABLE
  2
VIEW
  5
6
330
0
100
AcDbSymbolTable
 70
     0
  0
ENDTAB
  0
TABLE
  2
UCS
  5
7
330
0
100
AcDbSymbolTable
 70
     0
  0
ENDTAB
  0
TABLE
  2
APPID
  5
9
330
0
100
AcDbSymbolTable
 70
     2
  0
APPID
  5
12
330
9
100
AcDbSymbolTableRecord
100
AcDbRegAppTableRecord
  2
ACAD
 70
     0
  0
ENDTAB
  0
TABLE
  2
DIMSTYLE
  5
A
330
0
100
AcDbSymbolTable
 70
     1
  0
DIMSTYLE
105
27
330
A
100
AcDbSymbolTableRecord
100
AcDbDimStyleTableRecord
  2
ISO-25
 70
     0
  3

  4

  5

  6

  7

 40
1.0
 41
2.5
 42
0.625
 43
3.75
 44
1.25
 45
0.0
 46
0.0
 47
0.0
 48
0.0
140
2.5
141
2.5
142
0.0
143
0.03937007874016
144
1.0
145
0.0
146
1.0
147
0.625
 71
     0
 72
     0
 73
     0
 74
     0
 75
     0
 76
     0
 77
     1
 78
     8
170
     0
171
     3
172
     1
173
     0
174
     0
175
     0
176
     0
177
     0
178
     0
270
     2
271
     2
272
     2
273
     2
274
     3
340
11
275
     0
280
     0
281
     0
282
     0
283
     0
284
     8
285
     0
286
     0
287
     3
288
     0
  0
ENDTAB
  0
TABLE
  2
BLOCK_RECORD
  5
1
330
0
100
AcDbSymbolTable
 70
     1
  0
BLOCK_RECORD
  5
1F
330
1
100
AcDbSymbolTableRecord
100
AcDbBlockTableRecord
  2
*MODEL_SPACE
  0
BLOCK_RECORD
  5
1B
330
1
100
AcDbSymbolTableRecord
100
AcDbBlockTableRecord
  2
*PAPER_SPACE
  0
ENDTAB
  0
ENDSEC
  0
SECTION
  2
BLOCKS
  0
BLOCK
  5
20
330
1F
100
AcDbEntity
  8
0
100
AcDbBlockBegin
  2
*MODEL_SPACE
 70
     0
 10
0.0
 20
0.0
 30
0.0
  3
*MODEL_SPACE
  1

  0
ENDBLK
  5
21
330
1F
100
AcDbEntity
  8
0
100
AcDbBlockEnd
  0
BLOCK
  5
1C
330
1B
100
AcDbEntity
 67
     1
  8
0
100
AcDbBlockBegin
  2
*PAPER_SPACE
  1

  0
ENDBLK
  5
1D
330
1B
100
AcDbEntity
 67
     1
  8
0
100
AcDbBlockEnd
  0
ENDSEC
  0
SECTION
  2
ENTITIES
  0
SPLINE
  5
100
100
AcDbEntity
  8
0
 62
7
100
AcDbSpline
 70
8
 71
3
 72
8
 73
4
 74
0
 40
0
 40
0
 40
0
 40
0
 40
1
 40
1
 40
1
 40
1
 10
38.866203
 20
11.837810
 30
0.0
 10
38.866203
 20
11.837810
 30
0.0
 10
38.394714
 20
12.284746
 30
0.0
 10
37.890206
 20
12.817418
 30
0.0
  0
SPLINE
  5
101
100
AcDbEntity
  8
0
 62
7
100
AcDbSpline
 70
8
 71
3
 72
8
 73
4
 74
0
 40
0
 40
0
 40
0
 40
0
 40
1
 40
1
 40
1
 40
1
 10
37.890206
 20
12.817418
 30
0.0
 10
37.385698
 20
13.350090
 30
0.0
 10
36.848170
 20
13.968497
 30
0.0
 10
36.716094
 20
14.311435
 30
0.0
  0
SPLINE
  5
102
100
AcDbEntity
  8
0
 62
7
100
AcDbSpline
 70
8
 71
3
 72
8
 73
4
 74
0
 40
0
 40
0
 40
0
 40
0
 40
1
 40
1
 40
1
 40
1
 10
36.716094
 20
14.311435
 30
0.0
 10
36.584018
 20
14.654374
 30
0.0
 10
36.463010
 20
15.120622
 30
0.0
 10
36.429314
 20
15.521550
 30
0.0
  0
SPLINE
  5
103
100
AcDbEntity
  8
0
 62
7
100
AcDbSpline
 70
8
 71
3
 72
8
 73
4
 74
0
 40
0
 40
0
 40
0
 40
0
 40
1
 40
1
 40
1
 40
1
 10
36.429314
 20
15.521550
 30
0.0
 10
36.395618
 20
15.922479
 30
0.0
 10
36.449234
 20
16.258089
 30
0.0
 10
36.666412
 20
16.339752
 30
0.0
  0
SPLINE
  5
104
100
AcDbEntity
  8
0
 62
7
100
AcDbSpline
 70
8
 71
3
 72
8
 73
4
 74
0
 40
0
 40
0
 40
0
 40
0
 40
1
 40
1
 40
1
 40
1
 10
36.666412
 20
16.339752
 30
0.0
 10
36.803407
 20
16.391632
 30
0.0
 10
36.991806
 20
16.034271
 30
0.0
 10
37.271206
 20
15.583263
 30
0.0
  0
SPLINE
  5
105
100
AcDbEntity
  8
0
 62
7
100
AcDbSpline
 70
8
 71
3
 72
8
 73
4
 74
0
 40
0
 40
0
 40
0
 40
0
 40
1
 40
1
 40
1
 40
1
 10
37.271206
 20
15.583263
 30
0.0
 10
37.550608
 20
15.132254
 30
0.0
 10
37.921011
 20
14.587601
 30
0.0
 10
38.422014
 20
14.264903
 30
0.0
  0
SPLINE
  5
106
100
AcDbEntity
  8
0
 62
7
100
AcDbSpline
 70
8
 71
3
 72
8
 73
4
 74
0
 40
0
 40
0
 40
0
 40
0
 40
1
 40
1
 40
1
 40
1
 10
38.422014
 20
14.264903
 30
0.0
 10
38.923018
 20
13.941974
 30
0.0
 10
39.553146
 20
13.626256
 30
0.0
 10
40.058023
 20
13.391270
 30
0.0
  0
SPLINE
  5
107
100
AcDbEntity
  8
0
 62
7
100
AcDbSpline
 70
8
 71
3
 72
8
 73
4
 74
0
 40
0
 40
0
 40
0
 40
0
 40
1
 40
1
 40
1
 40
1
 10
40.058023
 20
13.391270
 30
0.0
 10
40.562900
 20
13.156286
 30
0.0
 10
40.942526
 20
13.002033
 30
0.0
 10
40.942526
 20
13.002033
 30
0.0
  0
LWPOLYLINE
  5
108
100
AcDbEntity
  8
0
 62
7
100
AcDbPolyline
 90
321
 70
1
 10
77.590791
 20
16.849740
 30
0.0
 10
77.651919
 20
16.850484
 30
0.0
 10
77.803842
 20
16.856004
 30
0.0
 10
77.999378
 20
16.871428
 30
0.0
 10
78.191346
 20
16.901764
 30
0.0
 10
78.332563
 20
16.952060
 30
0.0
 10
78.375843
 20
17.027356
 30
0.0
 10
78.274014
 20
17.132695
 30
0.0
 10
77.979886
 20
17.273131
 30
0.0
 10
77.529566
 20
17.584236
 30
0.0
 10
76.995326
 20
18.149389
 30
0.0
 10
76.384234
 20
18.895327
 30
0.0
 10
75.703358
 20
19.748792
 30
0.0
 10
74.959763
 20
20.636523
 30
0.0
 10
74.160518
 20
21.485261
 30
0.0
 10
73.312691
 20
22.221744
 30
0.0
 10
72.423347
 20
22.772713
 30
0.0
 10
71.844022
 20
23.043551
 30
0.0
 10
71.277790
 20
23.297780
 30
0.0
 10
70.733542
 20
23.533446
 30
0.0
 10
70.220174
 20
23.748599
 30
0.0
 10
69.746582
 20
23.941286
 30
0.0
 10
69.321659
 20
24.109554
 30
0.0
 10
68.954301
 20
24.251453
 30
0.0
 10
68.653401
 20
24.365028
 30
0.0
 10
68.546451
 20
24.421284
 30
0.0
 10
68.438447
 20
24.475140
 30
0.0
 10
68.329347
 20
24.526460
 30
0.0
 10
68.219112
 20
24.575124
 30
0.0
 10
68.107701
 20
24.620996
 30
0.0
 10
67.995073
 20
24.663940
 30
0.0
 10
67.881189
 20
24.703836
 30
0.0
 10
67.766007
 20
24.740548
 30
0.0
 10
67.276746
 20
24.881180
 30
0.0
 10
66.591474
 20
25.065201
 30
0.0
 10
65.730142
 20
25.284960
 30
0.0
 10
64.712703
 20
25.532808
 30
0.0
 10
63.559106
 20
25.801094
 30
0.0
 10
62.289303
 20
26.082166
 30
0.0
 10
60.923245
 20
26.368375
 30
0.0
 10
59.480882
 20
26.652070
 30
0.0
 10
60.020498
 20
26.847326
 30
0.0
 10
60.517960
 20
27.024244
 30
0.0
 10
60.964082
 20
27.180451
 30
0.0
 10
61.349684
 20
27.313576
 30
0.0
 10
61.665581
 20
27.421247
 30
0.0
 10
61.902590
 20
27.501095
 30
0.0
 10
62.051530
 20
27.550743
 30
0.0
 10
62.103218
 20
27.567815
 30
0.0
 10
61.979441
 20
27.565735
 30
0.0
 10
61.630877
 20
27.556911
 30
0.0
 10
61.091680
 20
27.537279
 30
0.0
 10
60.396007
 20
27.502807
 30
0.0
 10
59.578011
 20
27.449471
 30
0.0
 10
58.671848
 20
27.373239
 30
0.0
 10
57.711671
 20
27.270079
 30
0.0
 10
56.731635
 20
27.135964
 30
0.0
 10
56.493090
 20
27.174220
 30
0.0
 10
56.254151
 20
27.211836
 30
0.0
 10
56.014890
 20
27.248788
 30
0.0
 10
55.775376
 20
27.285044
 30
0.0
 10
55.535677
 20
27.320580
 30
0.0
 10
55.295862
 20
27.355372
 30
0.0
 10
55.056002
 20
27.389388
 30
0.0
 10
54.816165
 20
27.422604
 30
0.0
 10
55.485832
 20
27.670644
 30
0.0
 10
56.112537
 20
27.897554
 30
0.0
 10
56.682001
 20
28.099654
 30
0.0
 10
57.179944
 20
28.273262
 30
0.0
 10
57.592089
 20
28.414697
 30
0.0
 10
57.904156
 20
28.520279
 30
0.0
 10
58.101867
 20
28.586327
 30
0.0
 10
58.170947
 20
28.609159
 30
0.0
 10
57.984687
 20
28.605799
 30
0.0
 10
57.468618
 20
28.590639
 30
0.0
 10
56.686804
 20
28.556143
 30
0.0
 10
55.703315
 20
28.494759
 30
0.0
 10
54.582216
 20
28.398935
 30
0.0
 10
53.387573
 20
28.261119
 30
0.0
 10
52.183454
 20
28.073757
 30
0.0
 10
51.033924
 20
27.829298
 30
0.0
 10
50.866781
 20
27.841010
 30
0.0
 10
50.700352
 20
27.852058
 30
0.0
 10
50.534662
 20
27.862426
 30
0.0
 10
50.369732
 20
27.872106
 30
0.0
 10
50.205586
 20
27.881090
 30
0.0
 10
50.042247
 20
27.889370
 30
0.0
 10
49.879738
 20
27.896890
 30
0.0
 10
49.718083
 20
27.903690
 30
0.0
 10
50.372055
 20
28.145040
 30
0.0
 10
50.982782
 20
28.365604
 30
0.0
 10
51.536716
 20
28.561870
 30
0.0
 10
52.020313
 20
28.730326
 30
0.0
 10
52.420025
 20
28.867459
 30
0.0
 10
52.722305
 20
28.969760
 30
0.0
 10
52.913607
 20
29.033720
 30
0.0
 10
52.980383
 20
29.055816
 30
0.0
 10
52.762982
 20
29.069712
 30
0.0
 10
52.145601
 20
29.083280
 30
0.0
 10
51.180470
 20
29.054368
 30
0.0
 10
49.919823
 20
28.940824
 30
0.0
 10
48.415891
 20
28.700489
 30
0.0
 10
46.720907
 20
28.291205
 30
0.0
 10
44.887102
 20
27.670817
 30
0.0
 10
42.966710
 20
26.797166
 30
0.0
 10
41.434148
 20
25.696742
 30
0.0
 10
40.153338
 20
24.448384
 30
0.0
 10
39.109669
 20
23.142913
 30
0.0
 10
38.288526
 20
21.871146
 30
0.0
 10
37.675297
 20
20.723902
 30
0.0
 10
37.255368
 20
19.792001
 30
0.0
 10
37.014126
 20
19.166259
 30
0.0
 10
36.936958
 20
18.937497
 30
0.0
 10
36.853098
 20
18.845968
 30
0.0
 10
36.590451
 20
18.595786
 30
0.0
 10
36.132422
 20
18.223558
 30
0.0
 10
35.462417
 20
17.765886
 30
0.0
 10
34.563838
 20
17.259379
 30
0.0
 10
33.420089
 20
16.740640
 30
0.0
 10
32.014574
 20
16.246276
 30
0.0
 10
30.330698
 20
15.812893
 30
0.0
 10
30.409338
 20
15.273590
 30
0.0
 10
30.487978
 20
14.734287
 30
0.0
 10
30.566618
 20
14.194985
 30
0.0
 10
30.645258
 20
13.655682
 30
0.0
 10
30.723898
 20
13.116380
 30
0.0
 10
30.802538
 20
12.577078
 30
0.0
 10
30.881178
 20
12.037775
 30
0.0
 10
30.959818
 20
11.498473
 30
0.0
 10
31.588963
 20
11.442633
 30
0.0
 10
32.218107
 20
11.386793
 30
0.0
 10
32.847251
 20
11.330953
 30
0.0
 10
33.476395
 20
11.275113
 30
0.0
 10
34.105540
 20
11.219273
 30
0.0
 10
34.734684
 20
11.163433
 30
0.0
 10
35.363828
 20
11.107593
 30
0.0
 10
35.992972
 20
11.051753
 30
0.0
 10
36.135316
 20
10.920057
 30
0.0
 10
36.556839
 20
10.567561
 30
0.0
 10
37.249282
 20
10.058152
 30
0.0
 10
38.204385
 20
9.455715
 30
0.0
 10
39.413885
 20
8.824138
 30
0.0
 10
40.869524
 20
8.227307
 30
0.0
 10
42.563040
 20
7.729109
 30
0.0
 10
44.486173
 20
7.393430
 30
0.0
 10
44.486173
 20
6.449186
 30
0.0
 10
44.486173
 20
5.504941
 30
0.0
 10
44.486173
 20
4.560696
 30
0.0
 10
44.486173
 20
3.616451
 30
0.0
 10
44.486173
 20
2.672206
 30
0.0
 10
44.486173
 20
1.727962
 30
0.0
 10
44.486173
 20
0.783718
 30
0.0
 10
44.486173
 20
-0.160527
 30
0.0
 10
44.906258
 20
-0.160527
 30
0.0
 10
45.326344
 20
-0.160527
 30
0.0
 10
45.746429
 20
-0.160527
 30
0.0
 10
46.166514
 20
-0.160527
 30
0.0
 10
46.586600
 20
-0.160527
 30
0.0
 10
47.006685
 20
-0.160527
 30
0.0
 10
47.426770
 20
-0.160527
 30
0.0
 10
47.846856
 20
-0.160527
 30
0.0
 10
47.846856
 20
0.750971
 30
0.0
 10
47.846856
 20
1.662469
 30
0.0
 10
47.846856
 20
2.573966
 30
0.0
 10
47.846856
 20
3.485465
 30
0.0
 10
47.846856
 20
4.396962
 30
0.0
 10
47.846856
 20
5.308461
 30
0.0
 10
47.846856
 20
6.219958
 30
0.0
 10
47.846856
 20
7.131456
 30
0.0
 10
48.181590
 20
7.108240
 30
0.0
 10
48.525144
 20
7.084680
 30
0.0
 10
48.877114
 20
7.060840
 30
0.0
 10
49.237098
 20
7.036768
 30
0.0
 10
49.604689
 20
7.012520
 30
0.0
 10
49.979487
 20
6.988152
 30
0.0
 10
50.361086
 20
6.963720
 30
0.0
 10
50.749085
 20
6.939280
 30
0.0
 10
50.749085
 20
6.051746
 30
0.0
 10
50.749085
 20
5.164211
 30
0.0
 10
50.749085
 20
4.276678
 30
0.0
 10
50.749085
 20
3.389143
 30
0.0
 10
50.749085
 20
2.501609
 30
0.0
 10
50.749085
 20
1.614075
 30
0.0
 10
50.749085
 20
0.726541
 30
0.0
 10
50.749085
 20
-0.160993
 30
0.0
 10
51.169170
 20
-0.160993
 30
0.0
 10
51.589255
 20
-0.160993
 30
0.0
 10
52.009341
 20
-0.160993
 30
0.0
 10
52.429426
 20
-0.160993
 30
0.0
 10
52.849511
 20
-0.160993
 30
0.0
 10
53.269597
 20
-0.160993
 30
0.0
 10
53.689682
 20
-0.160993
 30
0.0
 10
54.109767
 20
-0.160993
 30
0.0
 10
54.109767
 20
0.702519
 30
0.0
 10
54.109767
 20
1.566031
 30
0.0
 10
54.109767
 20
2.429543
 30
0.0
 10
54.109767
 20
3.293055
 30
0.0
 10
54.109767
 20
4.156567
 30
0.0
 10
54.109767
 20
5.020079
 30
0.0
 10
54.109767
 20
5.883591
 30
0.0
 10
54.109767
 20
6.747104
 30
0.0
 10
55.067794
 20
6.698976
 30
0.0
 10
56.036137
 20
6.653736
 30
0.0
 10
57.010592
 20
6.611968
 30
0.0
 10
57.986949
 20
6.574248
 30
0.0
 10
58.960999
 20
6.541144
 30
0.0
 10
59.928537
 20
6.513248
 30
0.0
 10
60.885352
 20
6.491128
 30
0.0
 10
61.827237
 20
6.475368
 30
0.0
 10
61.827237
 20
5.645882
 30
0.0
 10
61.827237
 20
4.816396
 30
0.0
 10
61.827237
 20
3.986910
 30
0.0
 10
61.827237
 20
3.157425
 30
0.0
 10
61.827237
 20
2.327938
 30
0.0
 10
61.827237
 20
1.498453
 30
0.0
 10
61.827237
 20
0.668967
 30
0.0
 10
61.827237
 20
-0.160518
 30
0.0
 10
62.247322
 20
-0.160518
 30
0.0
 10
62.667408
 20
-0.160518
 30
0.0
 10
63.087493
 20
-0.160518
 30
0.0
 10
63.507578
 20
-0.160518
 30
0.0
 10
63.927664
 20
-0.160518
 30
0.0
 10
64.347749
 20
-0.160518
 30
0.0
 10
64.767834
 20
-0.160518
 30
0.0
 10
65.187920
 20
-0.160518
 30
0.0
 10
65.187920
 20
0.669898
 30
0.0
 10
65.187920
 20
1.500314
 30
0.0
 10
65.187920
 20
2.330730
 30
0.0
 10
65.187920
 20
3.161147
 30
0.0
 10
65.187920
 20
3.991563
 30
0.0
 10
65.187920
 20
4.821980
 30
0.0
 10
65.187920
 20
5.652396
 30
0.0
 10
65.187920
 20
6.482813
 30
0.0
 10
65.584392
 20
6.492437
 30
0.0
 10
65.972182
 20
6.504253
 30
0.0
 10
66.350819
 20
6.518317
 30
0.0
 10
66.719830
 20
6.534685
 30
0.0
 10
67.078740
 20
6.553413
 30
0.0
 10
67.427078
 20
6.574549
 30
0.0
 10
67.764373
 20
6.598149
 30
0.0
 10
68.090149
 20
6.624269
 30
0.0
 10
68.090149
 20
5.776113
 30
0.0
 10
68.090149
 20
4.927956
 30
0.0
 10
68.090149
 20
4.079799
 30
0.0
 10
68.090149
 20
3.231642
 30
0.0
 10
68.090149
 20
2.383486
 30
0.0
 10
68.090149
 20
1.535330
 30
0.0
 10
68.090149
 20
0.687173
 30
0.0
 10
68.090149
 20
-0.160984
 30
0.0
 10
68.510234
 20
-0.160984
 30
0.0
 10
68.930319
 20
-0.160984
 30
0.0
 10
69.350405
 20
-0.160984
 30
0.0
 10
69.770490
 20
-0.160984
 30
0.0
 10
70.190575
 20
-0.160984
 30
0.0
 10
70.610661
 20
-0.160984
 30
0.0
 10
71.030746
 20
-0.160984
 30
0.0
 10
71.450831
 20
-0.160984
 30
0.0
 10
71.450831
 20
0.805829
 30
0.0
 10
71.450831
 20
1.772641
 30
0.0
 10
71.450831
 20
2.739454
 30
0.0
 10
71.450831
 20
3.706266
 30
0.0
 10
71.450831
 20
4.673078
 30
0.0
 10
71.450831
 20
5.639891
 30
0.0
 10
71.450831
 20
6.606703
 30
0.0
 10
71.450831
 20
7.573516
 30
0.0
 10
72.016110
 20
8.357402
 30
0.0
 10
72.615635
 20
9.232909
 30
0.0
 10
73.203689
 20
10.173437
 30
0.0
 10
73.734554
 20
11.152386
 30
0.0
 10
74.162510
 20
12.143157
 30
0.0
 10
74.441841
 20
13.119150
 30
0.0
 10
74.526828
 20
14.053766
 30
0.0
 10
74.371753
 20
14.920404
 30
0.0
 10
74.173138
 20
15.496566
 30
0.0
 10
73.933898
 20
16.192065
 30
0.0
 10
73.651583
 20
16.982325
 30
0.0
 10
73.323753
 20
17.842770
 30
0.0
 10
72.947962
 20
18.748822
 30
0.0
 10
72.521766
 20
19.675908
 30
0.0
 10
72.042722
 20
20.599449
 30
0.0
 10
71.508384
 20
21.494869
 30
0.0
 10
72.307815
 20
21.030745
 30
0.0
 10
73.122073
 20
20.381226
 30
0.0
 10
73.913733
 20
19.622530
 30
0.0
 10
74.645374
 20
18.830870
 30
0.0
 10
75.279571
 20
18.082463
 30
0.0
 10
75.778903
 20
17.453524
 30
0.0
 10
76.105946
 20
17.020270
 30
0.0
 10
76.223276
 20
16.858914
 30
0.0
 10
76.308745
 20
16.591066
 30
0.0
 10
76.394213
 20
16.323218
 30
0.0
 10
76.479681
 20
16.055370
 30
0.0
 10
76.565149
 20
15.787522
 30
0.0
 10
76.650617
 20
15.519674
 30
0.0
 10
76.736086
 20
15.251826
 30
0.0
 10
76.821554
 20
14.983978
 30
0.0
 10
76.907022
 20
14.716130
 30
0.0
 10
76.918518
 20
14.915809
 30
0.0
 10
76.930022
 20
15.115488
 30
0.0
 10
76.941526
 20
15.315167
 30
0.0
 10
76.953030
 20
15.514846
 30
0.0
 10
76.964534
 20
15.714526
 30
0.0
 10
76.976038
 20
15.914205
 30
0.0
 10
76.987542
 20
16.113884
 30
0.0
 10
76.999046
 20
16.313563
 30
0.0
 10
77.191318
 20
16.201946
 30
0.0
 10
77.383591
 20
16.090327
 30
0.0
 10
77.575863
 20
15.978710
 30
0.0
 10
77.768136
 20
15.867091
 30
0.0
 10
77.960409
 20
15.755474
 30
0.0
 10
78.152682
 20
15.643856
 30
0.0
 10
78.344954
 20
15.532238
 30
0.0
 10
78.537212
 20
15.420620
 30
0.0
 10
78.418910
 20
15.599243
 30
0.0
 10
78.300606
 20
15.777867
 30
0.0
 10
78.182304
 20
15.956490
 30
0.0
 10
78.064002
 20
16.135114
 30
0.0
 10
77.945698
 20
16.313738
 30
0.0
 10
77.827396
 20
16.492362
 30
0.0
 10
77.709093
 20
16.670985
 30
0.0
 10
77.590791
 20
16.849740
 30
0.0
  0
SPLINE
  5
109
100
AcDbEntity
  8
0
 62
7
100
AcDbSpline
 70
8
 71
3
 72
8
 73
4
 74
0
 40
0
 40
0
 40
0
 40
0
 40
1
 40
1
 40
1
 40
1
 10
41.655294
 20
16.259718
 30
0.0
 10
41.177656
 20
16.259718
 30
0.0
 10
40.745150
 20
16.442820
 30
0.0
 10
40.432054
 20
16.738936
 30
0.0
  0
SPLINE
  5
10a
100
AcDbEntity
  8
0
 62
7
100
AcDbSpline
 70
8
 71
3
 72
8
 73
4
 74
0
 40
0
 40
0
 40
0
 40
0
 40
1
 40
1
 40
1
 40
1
 10
40.432054
 20
16.738936
 30
0.0
 10
40.118958
 20
17.035052
 30
0.0
 10
39.925270
 20
17.444182
 30
0.0
 10
39.925270
 20
17.896238
 30
0.0
  0
SPLINE
  5
10b
100
AcDbEntity
  8
0
 62
7
100
AcDbSpline
 70
8
 71
3
 72
8
 73
4
 74
0
 40
0
 40
0
 40
0
 40
0
 40
1
 40
1
 40
1
 40
1
 10
39.925270
 20
17.896238
 30
0.0
 10
39.925270
 20
18.348293
 30
0.0
 10
40.118958
 20
18.757423
 30
0.0
 10
40.432054
 20
19.053539
 30
0.0
  0
SPLINE
  5
10c
100
AcDbEntity
  8
0
 62
7
100
AcDbSpline
 70
8
 71
3
 72
8
 73
4
 74
0
 40
0
 40
0
 40
0
 40
0
 40
1
 40
1
 40
1
 40
1
 10
40.432054
 20
19.053539
 30
0.0
 10
40.745150
 20
19.349655
 30
0.0
 10
41.177656
 20
19.532758
 30
0.0
 10
41.655294
 20
19.532758
 30
0.0
  0
SPLINE
  5
10d
100
AcDbEntity
  8
0
 62
7
100
AcDbSpline
 70
8
 71
3
 72
8
 73
4
 74
0
 40
0
 40
0
 40
0
 40
0
 40
1
 40
1
 40
1
 40
1
 10
41.655294
 20
19.532758
 30
0.0
 10
42.132932
 20
19.532758
 30
0.0
 10
42.565561
 20
19.349655
 30
0.0
 10
42.878780
 20
19.053539
 30
0.0
  0
SPLINE
  5
10e
100
AcDbEntity
  8
0
 62
7
100
AcDbSpline
 70
8
 71
3
 72
8
 73
4
 74
0
 40
0
 40
0
 40
0
 40
0
 40
1
 40
1
 40
1
 40
1
 10
42.878780
 20
19.053539
 30
0.0
 10
43.192000
 20
18.757423
 30
0.0
 10
43.385810
 20
18.348293
 30
0.0
 10
43.385810
 20
17.896238
 30
0.0
  0
SPLINE
  5
10f
100
AcDbEntity
  8
0
 62
7
100
AcDbSpline
 70
8
 71
3
 72
8
 73
4
 74
0
 40
0
 40
0
 40
0
 40
0
 40
1
 40
1
 40
1
 40
1
 10
43.385810
 20
17.896238
 30
0.0
 10
43.385810
 20
17.444182
 30
0.0
 10
43.192122
 20
17.035052
 30
0.0
 10
42.878965
 20
16.738936
 30
0.0
  0
SPLINE
  5
110
100
AcDbEntity
  8
0
 62
7
100
AcDbSpline
 70
8
 71
3
 72
8
 73
4
 74
0
 40
0
 40
0
 40
0
 40
0
 40
1
 40
1
 40
1
 40
1
 10
42.878965
 20
16.738936
 30
0.0
 10
42.565807
 20
16.442820
 30
0.0
 10
42.133178
 20
16.259718
 30
0.0
 10
41.655294
 20
16.259718
 30
0.0
  0
LWPOLYLINE
  5
111
100
AcDbEntity
  8
0
 62
7
100
AcDbPolyline
 90
3
 70
1
 10
40.942526
 20
13.002033
 30
0.0
 10
39.904365
 20
12.419922
 30
0.0
 10
38.866203
 20
11.837810
 30
0.0
  0
LWPOLYLINE
  5
112
100
AcDbEntity
  8
0
 62
7
100
AcDbPolyline
 90
2
 70
1
 10
41.655294
 20
16.259718
 30
0.0
 10
41.655294
 20
16.259718
 30
0.0
  0
ENDSEC
  0
SECTION
  2
OBJECTS
  0
DICTIONARY
  5
C
330
0
100
AcDbDictionary
  3
ACAD_GROUP
350
D
  3
ACAD_MLINESTYLE
350
17
  0
DICTIONARY
  5
D
330
C
100
AcDbDictionary
  0
DICTIONARY
  5
1A
330
C
100
AcDbDictionary
  0
DICTIONARY
  5
17
330
C
100
AcDbDictionary
  3
STANDARD
350
18
  0
DICTIONARY
  5
19
330
C
100
AcDbDictionary
  0
ENDSEC
  0
EOF
